  0
SECTION
  2
HEADER
  9
$ACADVER
  1
AC1009
  9
$INSBASE
 10
0
 20
0
 30
0
  9
$EXTMIN
 10
0
 20
0
  9
$EXTMAX
 10
2100
 20
1485
  9
$LIMMIN
 10
0
 20
0
  9
$LIMMAX
 10
2100
 20
1485
  9
$LTSCALE
 40
5
  0
ENDSEC
  0
SECTION
  2
TABLES
  0
TABLE
  2
LTYPE
 70
     9
  0
LTYPE
  2
CONTINUOUS
 70
    64
  3
実線
 72
    65
 73
     0
 40
0.0
  0
LTYPE
  2
DASHED1
 70
    64
  3
--  --  --  --  --  --  --  --  
 72
    65
 73
     2
 40
2.5
 49
1.25
 49
-1.25
  0
LTYPE
  2
DASHED2
 70
    64
  3
----    ----    ----    ----    
 72
    65
 73
     2
 40
5.0
 49
2.5
 49
-2.5
  0
LTYPE
  2
DASHED3
 70
    64
  3
------  ------  ------  ------  
 72
    65
 73
     2
 40
5.0
 49
3.75
 49
-1.25
  0
LTYPE
  2
CENTER1
 70
    64
  3
----- - ----- - ----- - ----- - 
 72
    65
 73
     4
 40
10.0
 49
6.25
 49
-1.25
 49
1.25
 49
-1.25
  0
LTYPE
  2
CENTER2
 70
    64
  3
----------  --  ----------  --  
 72
    65
 73
     4
 40
20.0
 49
12.5
 49
-2.5
 49
2.5
 49
-2.5
  0
LTYPE
  2
PHANTOM1
 70
    64
  3
--- - - --- - - --- - - --- - - 
 72
    65
 73
     6
 40
10.0
 49
3.25
 49
-1.25
 49
1.25
 49
-1.25
 49
1.25
 49
-1.25
  0
LTYPE
  2
PHANTOM2
 70
    64
  3
--------  -  -  --------  -  -  
 72
    65
 73
     6
 40
20.0
 49
10.0
 49
-2.5
 49
1.25
 49
-2.5
 49
1.25
 49
-2.5
  0
LTYPE
  2
DOT
 70
    64
  3
-   -   -   -   -   -   -   -   
 72
    65
 73
     2
 40
2.5
 49
0.625
 49
-1.875
  0
LTYPE
  2
DUMMY
 70
    64
  3
ダミー
 72
    65
 73
     0
 40
0.0
  0
LTYPE
  2
RAND1
 70
    64
  3
ランダム線1
 72
    65
 73
     4
 40
10.0
 49
1.0
 49
-2.0
 49
3.0
 49
-4.0
  0
LTYPE
  2
RAND2
 70
    64
  3
ランダム線2
 72
    65
 73
     4
 40
14.0
 49
2.0
 49
-3.0
 49
4.0
 49
-5.0
  0
LTYPE
  2
RAND3
 70
    64
  3
ランダム線3
 72
    65
 73
     4
 40
18.0
 49
3.0
 49
-4.0
 49
5.0
 49
-6.0
  0
LTYPE
  2
RAND4
 70
    64
  3
ランダム線4
 72
    65
 73
     4
 40
22.0
 49
4.0
 49
-5.0
 49
6.0
 49
-7.0
  0
LTYPE
  2
RAND5
 70
    64
  3
ランダム線5
 72
    65
 73
     4
 40
26.0
 49
5.0
 49
-6.0
 49
7.0
 49
-8.0
  0
LTYPE
  2
LONG1
 70
    64
  3
----------  --  ----------  --  
 72
    65
 73
     4
 40
40.0
 49
32.5
 49
-2.5
 49
2.5
 49
-2.5
  0
LTYPE
  2
LONG2
 70
    64
  3
--------  -  -  --------  -  -  
 72
    65
 73
     6
 40
40.0
 49
30.0
 49
-2.5
 49
1.25
 49
-2.5
 49
1.25
 49
-2.5
  0
LTYPE
  2
LONG3
 70
    64
  3
+++++++++++++++..+++++++++++++++
 72
    65
 73
     2
 40
40.0
 49
37.5
 49
-2.5
  0
LTYPE
  2
LONG4
 70
    64
  3
+++++++++++++++..+++++++++++++++
 72
    65
 73
     2
 40
80.0
 49
75.0
 49
-5.0
  0
LTYPE
  2
LONG5
 70
    64
  3
----------  --  ----------  --  
 72
    65
 73
     4
 40
60.0
 49
37.5
 49
-7.5
 49
7.5
 49
-7.5
  0
LTYPE
  2
dashed
 70
   64
  3
-------   -------------   ------
 72
   65
 73
    2
 40
7.5
 49
6
 49
-1.5
  0
LTYPE
  2
dashed_spaced
 70
   64
  3
----        --------        ----
 72
   65
 73
    2
 40
12
 49
6
 49
-6
  0
LTYPE
  2
long_dashed_dotted
 70
   64
  3
------------- --- --------------
 72
   65
 73
    4
 40
15.25
 49
12
 49
-1.5
 49
0.25
 49
-1.5
  0
LTYPE
  2
long_dashed_double-dotted
 70
   64
  3
----------- --- --- ------------
 72
   65
 73
    6
 40
17
 49
12
 49
-1.5
 49
0.25
 49
-1.5
 49
0.25
 49
-1.5
  0
LTYPE
  2
long_dashed_triplicate-dotted
 70
   64
  3
--------- --- --- --- ----------
 72
   65
 73
    8
 40
18.75
 49
12
 49
-1.5
 49
0.25
 49
-1.5
 49
0.25
 49
-1.5
 49
0.25
 49
-1.5
  0
LTYPE
  2
dotted
 70
   64
  3
   -       -       -       -    
 72
   65
 73
    2
 40
1.75
 49
0.25
 49
-1.5
  0
LTYPE
  2
chain
 70
   64
  3
-------------- -- --------------
 72
   65
 73
    4
 40
18.5
 49
12
 49
-1.5
 49
3.5
 49
-1.5
  0
LTYPE
  2
chain_double_dash
 70
   64
  3
------------ -- -- -------------
 72
   65
 73
    6
 40
23.5
 49
12
 49
-1.5
 49
3.5
 49
-1.5
 49
3.5
 49
-1.5
  0
LTYPE
  2
dashed_dotted
 70
   64
  3
-----------     -     ----------
 72
   65
 73
    4
 40
9.25
 49
6
 49
-1.5
 49
0.25
 49
-1.5
  0
LTYPE
  2
double-dashed_dotted
 70
   64
  3
------   -----------   -   -----
 72
   65
 73
    6
 40
16.75
 49
6
 49
-1.5
 49
6
 49
-1.5
 49
0.25
 49
-1.5
  0
LTYPE
  2
dashed_double-dotted
 70
   64
  3
---------    -    -    ---------
 72
   65
 73
    6
 40
11
 49
6
 49
-1.5
 49
0.25
 49
-1.5
 49
0.25
 49
-1.5
  0
LTYPE
  2
double-dashed_double-dotted
 70
   64
  3
-----   ---------   -   -   ----
 72
   65
 73
    8
 40
18.5
 49
6
 49
-1.5
 49
6
 49
-1.5
 49
0.25
 49
-1.5
 49
0.25
 49
-1.5
  0
LTYPE
  2
dashed_triplicate-dotted
 70
   64
  3
-------    -    -    -    ------
 72
   65
 73
    8
 40
12.75
 49
6
 49
-1.5
 49
0.25
 49
-1.5
 49
0.25
 49
-1.5
 49
0.25
 49
-1.5
  0
LTYPE
  2
double-dashed_triplicate-dotted
 70
   64
  3
-----  ---------  -  -  -  -----
 72
   65
 73
   10
 40
20.25
 49
6
 49
-1.5
 49
6
 49
-1.5
 49
0.25
 49
-1.5
 49
0.25
 49
-1.5
 49
0.25
 49
-1.5
  0
LTYPE
  2
undefined
 70
   64
  3
--------------------------------
 72
   65
 73
    0
 40
0
  0
ENDTAB
  0
TABLE
  2
STYLE
  5
3
100
AcDbSymbolTable
 70
     1
  0
STYLE
  5
10
100
AcDbSymbolTableRecord
100
AcDbTextStyleTableRecord
  2
STANDARD
 70
     0
 40
0.0
 41
1.0
 50
0.0
 71
     0
 42
0.2
  3
txt
  4
bigfont.shx
  0
STYLE
  5
26
100
AcDbSymbolTableRecord
100
AcDbTextStyleTableRecord
  2
TATEGAKI
 70
    68
 40
0.0
 41
1.0
 50
0.0
 71
     0
 42
1.0
  3
txt
  4
bigfont.shx
  0
ENDTAB
  0
TABLE
  2
LAYER
 70
    3
  0
LAYER
  2
_0-0_
 70
   64
 62
    7
  6
CONTINUOUS
  0
LAYER
  2
_1-0_
 70
   64
 62
    7
  6
CONTINUOUS
  0
LAYER
  2
ADD_LINE
 70
   64
 62
    7
  6
CONTINUOUS
  0
ENDTAB
  0
ENDSEC
  0
SECTION
  2
BLOCKS
  0
ENDSEC
  0
SECTION
  2
ENTITIES
  0
LINE
  8
_0-0_
  6
CONTINUOUS
 62
    4
 10
954.26026850467588
 20
1240.1029219659927
 11
1059.2602437606936
 21
1240.1029219659927
  0
LINE
  8
_0-0_
  6
CONTINUOUS
 62
    7
 10
479.55314469138921
 20
1034.9625152038434
 11
380.5531521145839
 21
1034.9625152038434
  0
LINE
  8
_1-0_
  6
CONTINUOUS
 62
    6
 10
79.762845425992452
 20
103.33313555330847
 11
2040.3635385874156
 21
103.33313555330847
  0
LINE
  8
_1-0_
  6
CONTINUOUS
 62
    6
 10
796.359954009185
 20
134.16391321130703
 11
809.17671822212833
 21
134.16391321130703
  0
LINE
  8
_1-0_
  6
CONTINUOUS
 62
    6
 10
809.17671822212833
 20
134.16391321130703
 11
809.67363924593542
 21
134.03968295535526
  0
LINE
  8
_1-0_
  6
CONTINUOUS
 62
    6
 10
809.67363924593542
 20
134.03968295535526
 11
809.77304819467906
 21
133.96521903373099
  0
LINE
  8
_1-0_
  6
CONTINUOUS
 62
    6
 10
809.77304819467906
 20
133.96521903373099
 11
809.9219451079498
 21
133.71680491679427
  0
LINE
  8
_1-0_
  6
CONTINUOUS
 62
    6
 10
809.9219451079498
 20
133.71680491679427
 11
809.97161865234375
 21
133.36910557102513
  0
LINE
  8
_1-0_
  6
CONTINUOUS
 62
    6
 10
809.97161865234375
 20
133.36910557102513
 11
809.97161865234375
 21
126.31482820253112
  0
LINE
  8
_1-0_
  6
CONTINUOUS
 62
    6
 10
809.97161865234375
 20
126.31482820253112
 11
795.56517729888105
 21
126.31482820253112
  0
LINE
  8
_1-0_
  6
CONTINUOUS
 62
    6
 10
795.56517729888105
 20
126.31482820253112
 11
795.56517729888105
 21
133.36910557102513
  0
LINE
  8
_1-0_
  6
CONTINUOUS
 62
    6
 10
795.56517729888105
 20
133.36910557102513
 11
795.68939208984375
 21
133.84103517274596
  0
LINE
  8
_1-0_
  6
CONTINUOUS
 62
    6
 10
795.68939208984375
 20
133.84103517274596
 11
795.76399519636823
 21
133.96521903373099
  0
LINE
  8
_1-0_
  6
CONTINUOUS
 62
    6
 10
795.76399519636823
 20
133.96521903373099
 11
796.01230105838272
 21
134.11414687697956
  0
LINE
  8
_1-0_
  6
CONTINUOUS
 62
    6
 10
796.01230105838272
 20
134.11414687697956
 11
796.359954009185
 21
134.16391321130703
  0
LINE
  8
_1-0_
  6
CONTINUOUS
 62
    6
 10
795.56517729888105
 20
117.77035223471152
 11
795.56517729888105
 21
124.92391483203789
  0
LINE
  8
_1-0_
  6
CONTINUOUS
 62
    6
 10
795.56517729888105
 20
124.92391483203789
 11
809.97161865234375
 21
124.92391483203789
  0
LINE
  8
_1-0_
  6
CONTINUOUS
 62
    6
 10
809.97161865234375
 20
124.92391483203789
 11
809.97161865234375
 21
117.77035223471152
  0
LINE
  8
_1-0_
  6
CONTINUOUS
 62
    6
 10
809.97161865234375
 20
117.77035223471152
 11
809.87220970360011
 21
117.27352400083802
  0
LINE
  8
_1-0_
  6
CONTINUOUS
 62
    6
 10
809.87220970360011
 20
117.27352400083802
 11
809.77304819467906
 21
117.17420010953333
  0
LINE
  8
_1-0_
  6
CONTINUOUS
 62
    6
 10
809.77304819467906
 20
117.17420010953333
 11
809.52461861275333
 21
117.02515627886797
  0
LINE
  8
_1-0_
  6
CONTINUOUS
 62
    6
 10
809.52461861275333
 20
117.02515627886797
 11
809.17671822212833
 21
116.97555232692409
  0
LINE
  8
_1-0_
  6
CONTINUOUS
 62
    6
 10
809.17671822212833
 20
116.97555232692409
 11
796.359954009185
 21
116.97555232692409
  0
LINE
  8
_1-0_
  6
CONTINUOUS
 62
    6
 10
796.359954009185
 20
116.97555232692409
 11
795.88820998733115
 21
117.07483755575645
  0
LINE
  8
_1-0_
  6
CONTINUOUS
 62
    6
 10
795.88820998733115
 20
117.07483755575645
 11
795.76399519636823
 21
117.17420010953333
  0
LINE
  8
_1-0_
  6
CONTINUOUS
 62
    6
 10
795.76399519636823
 20
117.17420010953333
 11
795.61466526340791
 21
117.42257556399785
  0
LINE
  8
_1-0_
  6
CONTINUOUS
 62
    6
 10
795.61466526340791
 20
117.42257556399785
 11
795.56517729888105
 21
117.77035223471152
  0
LINE
  8
_1-0_
  6
CONTINUOUS
 62
    6
 10
810.17031282991979
 20
135.55494256921719
 11
795.36642126134916
 21
135.55494256921719
  0
LINE
  8
_1-0_
  6
CONTINUOUS
 62
    6
 10
795.36642126134916
 20
135.55494256921719
 11
794.79520643079604
 21
135.43063498832083
  0
LINE
  8
_1-0_
  6
CONTINUOUS
 62
    6
 10
794.79520643079604
 20
135.43063498832083
 11
794.2734795647699
 21
135.05806794037687
  0
LINE
  8
_1-0_
  6
CONTINUOUS
 62
    6
 10
794.2734795647699
 20
135.05806794037687
 11
793.90089705183698
 21
134.53651118922878
  0
LINE
  8
_1-0_
  6
CONTINUOUS
 62
    6
 10
793.90089705183698
 20
134.53651118922878
 11
793.77674412082979
 21
133.96521903373099
  0
LINE
  8
_1-0_
  6
CONTINUOUS
 62
    6
 10
793.77674412082979
 20
133.96521903373099
 11
793.77674412082979
 21
117.17420010953333
  0
LINE
  8
_1-0_
  6
CONTINUOUS
 62
    6
 10
793.77674412082979
 20
117.17420010953333
 11
793.90089705183698
 21
116.60291568653008
  0
LINE
  8
_1-0_
  6
CONTINUOUS
 62
    6
 10
793.90089705183698
 20
116.60291568653008
 11
794.2734795647699
 21
116.08142852783203
  0
LINE
  8
_1-0_
  6
CONTINUOUS
 62
    6
 10
794.2734795647699
 20
116.08142852783203
 11
794.79520643079604
 21
115.70870682999896
  0
LINE
  8
_1-0_
  6
CONTINUOUS
 62
    6
 10
794.79520643079604
 20
115.70870682999896
 11
795.36642126134916
 21
115.58460029395853
  0
LINE
  8
_1-0_
  6
CONTINUOUS
 62
    6
 10
795.36642126134916
 20
115.58460029395853
 11
810.17031282991979
 21
115.58460029395853
  0
LINE
  8
_1-0_
  6
CONTINUOUS
 62
    6
 10
810.17031282991979
 20
115.58460029395853
 11
810.74165138038438
 21
115.70870682999896
  0
LINE
  8
_1-0_
  6
CONTINUOUS
 62
    6
 10
810.74165138038438
 20
115.70870682999896
 11
811.26313080658792
 21
116.08142852783203
  0
LINE
  8
_1-0_
  6
CONTINUOUS
 62
    6
 10
811.26313080658792
 20
116.08142852783203
 11
811.63583703943209
 21
116.60291568653008
  0
LINE
  8
_1-0_
  6
CONTINUOUS
 62
    6
 10
811.63583703943209
 20
116.60291568653008
 11
811.76011369035052
 21
117.17420010953333
  0
LINE
  8
_1-0_
  6
CONTINUOUS
 62
    6
 10
811.76011369035052
 20
117.17420010953333
 11
811.76011369035052
 21
133.96521903373099
  0
LINE
  8
_1-0_
  6
CONTINUOUS
 62
    6
 10
811.76011369035052
 20
133.96521903373099
 11
811.63583703943209
 21
134.53651118922878
  0
LINE
  8
_1-0_
  6
CONTINUOUS
 62
    6
 10
811.63583703943209
 20
134.53651118922878
 11
811.26313080658792
 21
135.05806794037687
  0
LINE
  8
_1-0_
  6
CONTINUOUS
 62
    6
 10
811.26313080658792
 20
135.05806794037687
 11
810.74165138038438
 21
135.43063498832083
  0
LINE
  8
_1-0_
  6
CONTINUOUS
 62
    6
 10
810.74165138038438
 20
135.43063498832083
 11
810.17031282991979
 21
135.55494256921719
  0
LINE
  8
_1-0_
  6
CONTINUOUS
 62
    6
 10
829.97415903452281
 20
136.15108696190092
 11
829.97415903452281
 21
133.17030313852669
  0
LINE
  8
_1-0_
  6
CONTINUOUS
 62
    6
 10
829.97415903452281
 20
133.17030313852669
 11
820.33674910261823
 21
133.17030313852669
  0
LINE
  8
_1-0_
  6
CONTINUOUS
 62
    6
 10
820.33674910261823
 20
133.17030313852669
 11
819.86494322080875
 21
133.0710179096944
  0
LINE
  8
_1-0_
  6
CONTINUOUS
 62
    6
 10
819.86494322080875
 20
133.0710179096944
 11
819.74072842984594
 21
132.9964302681588
  0
LINE
  8
_1-0_
  6
CONTINUOUS
 62
    6
 10
819.74072842984594
 20
132.9964302681588
 11
819.59164593670823
 21
132.77283745843008
  0
LINE
  8
_1-0_
  6
CONTINUOUS
 62
    6
 10
819.59164593670823
 20
132.77283745843008
 11
819.54197239231416
 21
132.47485805202174
  0
LINE
  8
_1-0_
  6
CONTINUOUS
 62
    6
 10
819.54197239231416
 20
132.47485805202174
 11
819.66624904323271
 21
132.05269478462839
  0
LINE
  8
_1-0_
  6
CONTINUOUS
 62
    6
 10
819.66624904323271
 20
132.05269478462839
 11
819.74072842984594
 21
131.95320851094016
  0
LINE
  8
_1-0_
  6
CONTINUOUS
 62
    6
 10
819.74072842984594
 20
131.95320851094016
 11
819.98903429186032
 21
131.82911743988859
  0
LINE
  8
_1-0_
  6
CONTINUOUS
 62
    6
 10
819.98903429186032
 20
131.82911743988859
 11
820.33674910261823
 21
131.77938203553893
  0
LINE
  8
_1-0_
  6
CONTINUOUS
 62
    6
 10
820.33674910261823
 20
131.77938203553893
 11
829.97415903452281
 21
131.77938203553893
  0
LINE
  8
_1-0_
  6
CONTINUOUS
 62
    6
 10
829.97415903452281
 20
131.77938203553893
 11
828.75718812684772
 21
129.44454760164831
  0
LINE
  8
_1-0_
  6
CONTINUOUS
 62
    6
 10
828.75718812684772
 20
129.44454760164831
 11
828.28519666517104
 21
128.6744452811576
  0
LINE
  8
_1-0_
  6
CONTINUOUS
 62
    6
 10
828.28519666517104
 20
128.6744452811576
 11
827.1923168285474
 21
127.10962811031855
  0
LINE
  8
_1-0_
  6
CONTINUOUS
 62
    6
 10
827.1923168285474
 20
127.10962811031855
 11
827.56496120143584
 21
127.63131631387246
  0
LINE
  8
_1-0_
  6
CONTINUOUS
 62
    6
 10
827.56496120143584
 20
127.63131631387246
 11
825.95041635874156
 21
125.59449221636797
  0
LINE
  8
_1-0_
  6
CONTINUOUS
 62
    6
 10
825.95041635874156
 20
125.59449221636797
 11
826.09918955210094
 21
125.76831869176914
  0
LINE
  8
_1-0_
  6
CONTINUOUS
 62
    6
 10
826.09918955210094
 20
125.76831869176914
 11
824.03752094990512
 21
123.5328468116554
  0
LINE
  8
_1-0_
  6
CONTINUOUS
 62
    6
 10
824.03752094990512
 20
123.5328468116554
 11
823.26767380173146
 21
122.78772818075645
  0
LINE
  8
_1-0_
  6
CONTINUOUS
 62
    6
 10
823.26767380173146
 20
122.78772818075645
 11
821.6282612568624
 21
121.32214984378301
  0
LINE
  8
_1-0_
  6
CONTINUOUS
 62
    6
 10
821.6282612568624
 20
121.32214984378301
 11
819.84019923854521
 21
119.85681894663216
  0
LINE
  8
_1-0_
  6
CONTINUOUS
 62
    6
 10
819.84019923854521
 20
119.85681894663216
 11
819.54197239231416
 21
119.45936099903008
  0
LINE
  8
_1-0_
  6
CONTINUOUS
 62
    6
 10
819.54197239231416
 20
119.45936099903008
 11
819.49242256783145
 21
119.31043315578151
  0
LINE
  8
_1-0_
  6
CONTINUOUS
 62
    6
 10
819.49242256783145
 20
119.31043315578151
 11
819.51698097022813
 21
118.98755511722051
  0
LINE
  8
_1-0_
  6
CONTINUOUS
 62
    6
 10
819.51698097022813
 20
118.98755511722051
 11
819.64119576119083
 21
118.66456109124258
  0
LINE
  8
_1-0_
  6
CONTINUOUS
 62
    6
 10
819.64119576119083
 20
118.66456109124258
 11
820.06357553842906
 21
118.4410069439862
  0
LINE
  8
_1-0_
  6
CONTINUOUS
 62
    6
 10
820.06357553842906
 20
118.4410069439862
 11
820.2127198915224
 21
118.41602325439453
  0
LINE
  8
_1-0_
  6
CONTINUOUS
 62
    6
 10
820.2127198915224
 20
118.41602325439453
 11
820.56043470228042
 21
118.465789588722
  0
LINE
  8
_1-0_
  6
CONTINUOUS
 62
    6
 10
820.56043470228042
 20
118.465789588722
 11
820.93295535525772
 21
118.66456109124258
  0
LINE
  8
_1-0_
  6
CONTINUOUS
 62
    6
 10
820.93295535525772
 20
118.66456109124258
 11
823.59083021009292
 21
120.80067041757943
  0
LINE
  8
_1-0_
  6
CONTINUOUS
 62
    6
 10
823.59083021009292
 20
120.80067041757943
 11
824.41022718274917
 21
121.57068768063105
  0
LINE
  8
_1-0_
  6
CONTINUOUS
 62
    6
 10
824.41022718274917
 20
121.57068768063105
 11
826.02483388539906
 21
123.16041121611725
  0
LINE
  8
_1-0_
  6
CONTINUOUS
 62
    6
 10
826.02483388539906
 20
123.16041121611725
 11
825.87587511217282
 21
123.01135965295742
  0
LINE
  8
_1-0_
  6
CONTINUOUS
 62
    6
 10
825.87587511217282
 20
123.01135965295742
 11
827.51528765704177
 21
124.82447495331634
  0
LINE
  8
_1-0_
  6
CONTINUOUS
 62
    6
 10
827.51528765704177
 20
124.82447495331634
 11
828.03658150337833
 21
125.47034701785527
  0
LINE
  8
_1-0_
  6
CONTINUOUS
 62
    6
 10
828.03658150337833
 20
125.47034701785527
 11
829.03048541094802
 21
126.76185143960488
  0
LINE
  8
_1-0_
  6
CONTINUOUS
 62
    6
 10
829.03048541094802
 20
126.76185143960488
 11
829.97415903452281
 21
128.10323818309888
  0
LINE
  8
_1-0_
  6
CONTINUOUS
 62
    6
 10
829.97415903452281
 20
128.10323818309888
 11
829.97415903452281
 21
121.04907680202174
  0
LINE
  8
_1-0_
  6
CONTINUOUS
 62
    6
 10
829.97415903452281
 20
121.04907680202174
 11
825.90061909443637
 21
121.04907680202174
  0
LINE
  8
_1-0_
  6
CONTINUOUS
 62
    6
 10
825.90061909443637
 20
121.04907680202174
 11
825.42868949271542
 21
120.94971424824486
  0
LINE
  8
_1-0_
  6
CONTINUOUS
 62
    6
 10
825.42868949271542
 20
120.94971424824486
 11
825.30459842166397
 21
120.87525032662057
  0
LINE
  8
_1-0_
  6
CONTINUOUS
 62
    6
 10
825.30459842166397
 20
120.87525032662057
 11
825.15551592852614
 21
120.6516188544196
  0
LINE
  8
_1-0_
  6
CONTINUOUS
 62
    6
 10
825.15551592852614
 20
120.6516188544196
 11
825.10584238413219
 21
120.3536085180334
  0
LINE
  8
_1-0_
  6
CONTINUOUS
 62
    6
 10
825.10584238413219
 20
120.3536085180334
 11
825.2298097352724
 21
119.93128286825645
  0
LINE
  8
_1-0_
  6
CONTINUOUS
 62
    6
 10
825.2298097352724
 20
119.93128286825645
 11
825.30459842166397
 21
119.83199763942409
  0
LINE
  8
_1-0_
  6
CONTINUOUS
 62
    6
 10
825.30459842166397
 20
119.83199763942409
 11
825.55290428367823
 21
119.7077751159668
  0
LINE
  8
_1-0_
  6
CONTINUOUS
 62
    6
 10
825.55290428367823
 20
119.7077751159668
 11
825.90061909443637
 21
119.65804744411159
  0
LINE
  8
_1-0_
  6
CONTINUOUS
 62
    6
 10
825.90061909443637
 20
119.65804744411159
 11
829.97415903452281
 21
119.65804744411159
  0
LINE
  8
_1-0_
  6
CONTINUOUS
 62
    6
 10
829.97415903452281
 20
119.65804744411159
 11
829.97415903452281
 21
115.18714234635638
  0
LINE
  8
_1-0_
  6
CONTINUOUS
 62
    6
 10
829.97415903452281
 20
115.18714234635638
 11
830.09843568544147
 21
114.59102888365052
  0
LINE
  8
_1-0_
  6
CONTINUOUS
 62
    6
 10
830.09843568544147
 20
114.59102888365052
 11
830.19772091427376
 21
114.44198505298516
  0
LINE
  8
_1-0_
  6
CONTINUOUS
 62
    6
 10
830.19772091427376
 20
114.44198505298516
 11
830.47089447846292
 21
114.24317488799225
  0
LINE
  8
_1-0_
  6
CONTINUOUS
 62
    6
 10
830.47089447846292
 20
114.24317488799225
 11
830.86815911370365
 21
114.19357093604837
  0
LINE
  8
_1-0_
  6
CONTINUOUS
 62
    6
 10
830.86815911370365
 20
114.19357093604837
 11
831.41475368190459
 21
114.34253744176914
  0
LINE
  8
_1-0_
  6
CONTINUOUS
 62
    6
 10
831.41475368190459
 20
114.34253744176914
 11
831.53903033282302
 21
114.44198505298516
  0
LINE
  8
_1-0_
  6
CONTINUOUS
 62
    6
 10
831.53903033282302
 20
114.44198505298516
 11
831.71304238809125
 21
114.73999538937129
  0
LINE
  8
_1-0_
  6
CONTINUOUS
 62
    6
 10
831.71304238809125
 20
114.73999538937129
 11
831.76271593248532
 21
115.18714234635638
  0
LINE
  8
_1-0_
  6
CONTINUOUS
 62
    6
 10
831.76271593248532
 20
115.18714234635638
 11
831.76271593248532
 21
119.65804744411159
  0
LINE
  8
_1-0_
  6
CONTINUOUS
 62
    6
 10
831.76271593248532
 20
119.65804744411159
 11
835.83625587257188
 21
119.65804744411159
  0
LINE
  8
_1-0_
  6
CONTINUOUS
 62
    6
 10
835.83625587257188
 20
119.65804744411159
 11
836.33286759660052
 21
119.75745639285527
  0
LINE
  8
_1-0_
  6
CONTINUOUS
 62
    6
 10
836.33286759660052
 20
119.75745639285527
 11
836.43227654534428
 21
119.83199763942409
  0
LINE
  8
_1-0_
  6
CONTINUOUS
 62
    6
 10
836.43227654534428
 20
119.83199763942409
 11
836.58123531857063
 21
120.0555131242082
  0
LINE
  8
_1-0_
  6
CONTINUOUS
 62
    6
 10
836.58123531857063
 20
120.0555131242082
 11
836.63109444283145
 21
120.3536085180334
  0
LINE
  8
_1-0_
  6
CONTINUOUS
 62
    6
 10
836.63109444283145
 20
120.3536085180334
 11
836.53174735404355
 21
120.77584911037135
  0
LINE
  8
_1-0_
  6
CONTINUOUS
 62
    6
 10
836.53174735404355
 20
120.77584911037135
 11
836.43227654534428
 21
120.87525032662057
  0
LINE
  8
_1-0_
  6
CONTINUOUS
 62
    6
 10
836.43227654534428
 20
120.87525032662057
 11
836.18378510346292
 21
120.999356862661
  0
LINE
  8
_1-0_
  6
CONTINUOUS
 62
    6
 10
836.18378510346292
 20
120.999356862661
 11
835.83625587257188
 21
121.04907680202174
  0
LINE
  8
_1-0_
  6
CONTINUOUS
 62
    6
 10
835.83625587257188
 20
121.04907680202174
 11
831.76271593248532
 21
121.04907680202174
  0
LINE
  8
_1-0_
  6
CONTINUOUS
 62
    6
 10
831.76271593248532
 20
121.04907680202174
 11
831.76271593248532
 21
128.89796076594172
  0
LINE
  8
_1-0_
  6
CONTINUOUS
 62
    6
 10
831.76271593248532
 20
128.89796076594172
 11
833.52609582849459
 21
126.21546564875423
  0
LINE
  8
_1-0_
  6
CONTINUOUS
 62
    6
 10
833.52609582849459
 20
126.21546564875423
 11
834.17197562552792
 21
125.32138051213444
  0
LINE
  8
_1-0_
  6
CONTINUOUS
 62
    6
 10
834.17197562552792
 20
125.32138051213444
 11
835.58776443069053
 21
123.58260541348841
  0
LINE
  8
_1-0_
  6
CONTINUOUS
 62
    6
 10
835.58776443069053
 20
123.58260541348841
 11
835.4635496397276
 21
123.73169563912057
  0
LINE
  8
_1-0_
  6
CONTINUOUS
 62
    6
 10
835.4635496397276
 20
123.73169563912057
 11
837.17750343116563
 21
121.84396176724817
  0
LINE
  8
_1-0_
  6
CONTINUOUS
 62
    6
 10
837.17750343116563
 20
121.84396176724817
 11
837.77346224398229
 21
121.22298833486198
  0
LINE
  8
_1-0_
  6
CONTINUOUS
 62
    6
 10
837.77346224398229
 20
121.22298833486198
 11
839.06522183804907
 21
119.98104920258392
  0
LINE
  8
_1-0_
  6
CONTINUOUS
 62
    6
 10
839.06522183804907
 20
119.98104920258392
 11
840.40622195682022
 21
118.76392364501953
  0
LINE
  8
_1-0_
  6
CONTINUOUS
 62
    6
 10
840.40622195682022
 20
118.76392364501953
 11
841.05228733372041
 21
118.41602325439453
  0
LINE
  8
_1-0_
  6
CONTINUOUS
 62
    6
 10
841.05228733372041
 20
118.41602325439453
 11
841.25104337125219
 21
118.39132566709779
  0
LINE
  8
_1-0_
  6
CONTINUOUS
 62
    6
 10
841.25104337125219
 20
118.39132566709779
 11
841.6484935863599
 21
118.4410069439862
  0
LINE
  8
_1-0_
  6
CONTINUOUS
 62
    6
 10
841.6484935863599
 20
118.4410069439862
 11
841.99620839711781
 21
118.66456109124258
  0
LINE
  8
_1-0_
  6
CONTINUOUS
 62
    6
 10
841.99620839711781
 20
118.66456109124258
 11
842.2196465569574
 21
119.18612557488515
  0
LINE
  8
_1-0_
  6
CONTINUOUS
 62
    6
 10
842.2196465569574
 20
119.18612557488515
 11
842.2196465569574
 21
119.35999071275866
  0
LINE
  8
_1-0_
  6
CONTINUOUS
 62
    6
 10
842.2196465569574
 20
119.35999071275866
 11
842.12011388830228
 21
119.7077751159668
  0
LINE
  8
_1-0_
  6
CONTINUOUS
 62
    6
 10
842.12011388830228
 20
119.7077751159668
 11
841.89692316828553
 21
120.0555131242082
  0
LINE
  8
_1-0_
  6
CONTINUOUS
 62
    6
 10
841.89692316828553
 20
120.0555131242082
 11
838.81685411607907
 21
122.8871757919724
  0
LINE
  8
_1-0_
  6
CONTINUOUS
 62
    6
 10
838.81685411607907
 20
122.8871757919724
 11
837.94747429925053
 21
123.73169563912057
  0
LINE
  8
_1-0_
  6
CONTINUOUS
 62
    6
 10
837.94747429925053
 20
123.73169563912057
 11
836.43227654534428
 21
125.27161417780697
  0
LINE
  8
_1-0_
  6
CONTINUOUS
 62
    6
 10
836.43227654534428
 20
125.27161417780697
 11
835.24004961993239
 21
126.61292359635638
  0
LINE
  8
_1-0_
  6
CONTINUOUS
 62
    6
 10
835.24004961993239
 20
126.61292359635638
 11
833.77440169050885
 21
128.50070386319544
  0
LINE
  8
_1-0_
  6
CONTINUOUS
 62
    6
 10
833.77440169050885
 20
128.50070386319544
 11
833.32740165091855
 21
129.14649087029531
  0
LINE
  8
_1-0_
  6
CONTINUOUS
 62
    6
 10
833.32740165091855
 20
129.14649087029531
 11
832.50769537848396
 21
130.43807261698959
  0
LINE
  8
_1-0_
  6
CONTINUOUS
 62
    6
 10
832.50769537848396
 20
130.43807261698959
 11
831.76271593248532
 21
131.77938203553893
  0
LINE
  8
_1-0_
  6
CONTINUOUS
 62
    6
 10
831.76271593248532
 20
131.77938203553893
 11
841.3005931957349
 21
131.77938203553893
  0
LINE
  8
_1-0_
  6
CONTINUOUS
 62
    6
 10
841.3005931957349
 20
131.77938203553893
 11
841.79739049963041
 21
131.87874458931589
  0
LINE
  8
_1-0_
  6
CONTINUOUS
 62
    6
 10
841.79739049963041
 20
131.87874458931589
 11
841.89692316828553
 21
131.95320851094016
  0
LINE
  8
_1-0_
  6
CONTINUOUS
 62
    6
 10
841.89692316828553
 20
131.95320851094016
 11
842.04582008155626
 21
132.17672399572422
  0
LINE
  8
_1-0_
  6
CONTINUOUS
 62
    6
 10
842.04582008155626
 20
132.17672399572422
 11
842.09555548590583
 21
132.47485805202174
  0
LINE
  8
_1-0_
  6
CONTINUOUS
 62
    6
 10
842.09555548590583
 20
132.47485805202174
 11
841.99620839711781
 21
132.89719143429318
  0
LINE
  8
_1-0_
  6
CONTINUOUS
 62
    6
 10
841.99620839711781
 20
132.89719143429318
 11
841.89692316828553
 21
132.9964302681588
  0
LINE
  8
_1-0_
  6
CONTINUOUS
 62
    6
 10
841.89692316828553
 20
132.9964302681588
 11
841.6484935863599
 21
133.12056773417709
  0
LINE
  8
_1-0_
  6
CONTINUOUS
 62
    6
 10
841.6484935863599
 20
133.12056773417709
 11
841.3005931957349
 21
133.17030313852669
  0
LINE
  8
_1-0_
  6
CONTINUOUS
 62
    6
 10
841.3005931957349
 20
133.17030313852669
 11
831.76271593248532
 21
133.17030313852669
  0
LINE
  8
_1-0_
  6
CONTINUOUS
 62
    6
 10
831.76271593248532
 20
133.17030313852669
 11
831.76271593248532
 21
136.15108696190092
  0
LINE
  8
_1-0_
  6
CONTINUOUS
 62
    6
 10
831.76271593248532
 20
136.15108696190092
 11
831.63837742161104
 21
136.74715402963997
  0
LINE
  8
_1-0_
  6
CONTINUOUS
 62
    6
 10
831.63837742161104
 20
136.74715402963997
 11
831.53903033282302
 21
136.89612826785526
  0
LINE
  8
_1-0_
  6
CONTINUOUS
 62
    6
 10
831.53903033282302
 20
136.89612826785526
 11
831.26573304872272
 21
137.07003206820104
  0
LINE
  8
_1-0_
  6
CONTINUOUS
 62
    6
 10
831.26573304872272
 20
137.07003206820104
 11
830.86815911370365
 21
137.14449598982526
  0
LINE
  8
_1-0_
  6
CONTINUOUS
 62
    6
 10
830.86815911370365
 20
137.14449598982526
 11
830.32181198532521
 21
136.99544442666541
  0
LINE
  8
_1-0_
  6
CONTINUOUS
 62
    6
 10
830.32181198532521
 20
136.99544442666541
 11
830.19772091427376
 21
136.89612826785526
  0
LINE
  8
_1-0_
  6
CONTINUOUS
 62
    6
 10
830.19772091427376
 20
136.89612826785526
 11
830.0238944388725
 21
136.57325022929427
  0
LINE
  8
_1-0_
  6
CONTINUOUS
 62
    6
 10
830.0238944388725
 20
136.57325022929427
 11
829.97415903452281
 21
136.15108696190092
  0
LINE
  8
_1-0_
  6
CONTINUOUS
 62
    6
 10
863.48914069098396
 20
131.87874458931589
 11
863.81186407965583
 21
131.43165175979206
  0
LINE
  8
_1-0_
  6
CONTINUOUS
 62
    6
 10
863.81186407965583
 20
131.43165175979206
 11
863.91139674831084
 21
131.35718783816776
  0
LINE
  8
_1-0_
  6
CONTINUOUS
 62
    6
 10
863.91139674831084
 20
131.35718783816776
 11
864.13477304819469
 21
131.30746789880703
  0
LINE
  8
_1-0_
  6
CONTINUOUS
 62
    6
 10
864.13477304819469
 20
131.30746789880703
 11
864.38332635003178
 21
131.38196275040912
  0
LINE
  8
_1-0_
  6
CONTINUOUS
 62
    6
 10
864.38332635003178
 20
131.38196275040912
 11
864.70604973870365
 21
131.63034593736802
  0
LINE
  8
_1-0_
  6
CONTINUOUS
 62
    6
 10
864.70604973870365
 20
131.63034593736802
 11
864.75590886296459
 21
131.75452979835308
  0
LINE
  8
_1-0_
  6
CONTINUOUS
 62
    6
 10
864.75590886296459
 20
131.75452979835308
 11
864.7805909852724
 21
132.07740783691406
  0
LINE
  8
_1-0_
  6
CONTINUOUS
 62
    6
 10
864.7805909852724
 20
132.07740783691406
 11
864.68136761639573
 21
132.47485805202174
  0
LINE
  8
_1-0_
  6
CONTINUOUS
 62
    6
 10
864.68136761639573
 20
132.47485805202174
 11
864.06029366158145
 21
133.59265198578703
  0
LINE
  8
_1-0_
  6
CONTINUOUS
 62
    6
 10
864.06029366158145
 20
133.59265198578703
 11
863.86166134396126
 21
133.94039772652292
  0
LINE
  8
_1-0_
  6
CONTINUOUS
 62
    6
 10
863.86166134396126
 20
133.94039772652292
 11
863.43946714659
 21
134.58606101371146
  0
LINE
  8
_1-0_
  6
CONTINUOUS
 62
    6
 10
863.43946714659
 20
134.58606101371146
 11
862.99246710699958
 21
135.15747688912057
  0
LINE
  8
_1-0_
  6
CONTINUOUS
 62
    6
 10
862.99246710699958
 20
135.15747688912057
 11
862.57008732976146
 21
135.40589100605735
  0
LINE
  8
_1-0_
  6
CONTINUOUS
 62
    6
 10
862.57008732976146
 20
135.40589100605735
 11
862.09815772804063
 21
135.35617106669662
  0
LINE
  8
_1-0_
  6
CONTINUOUS
 62
    6
 10
862.09815772804063
 20
135.35617106669662
 11
861.87459584828969
 21
134.93380675444735
  0
LINE
  8
_1-0_
  6
CONTINUOUS
 62
    6
 10
861.87459584828969
 20
134.93380675444735
 11
861.99862505938552
 21
134.46187715272643
  0
LINE
  8
_1-0_
  6
CONTINUOUS
 62
    6
 10
861.99862505938552
 20
134.46187715272643
 11
862.76859592747041
 21
133.26966569230365
  0
LINE
  8
_1-0_
  6
CONTINUOUS
 62
    6
 10
862.76859592747041
 20
133.26966569230365
 11
863.48914069098396
 21
131.87874458931589
  0
LINE
  8
_1-0_
  6
CONTINUOUS
 62
    6
 10
866.27085917704812
 20
132.47485805202174
 11
866.59383000554271
 21
132.05269478462839
  0
LINE
  8
_1-0_
  6
CONTINUOUS
 62
    6
 10
866.59383000554271
 20
132.05269478462839
 11
866.71804479650564
 21
131.97802981814823
  0
LINE
  8
_1-0_
  6
CONTINUOUS
 62
    6
 10
866.71804479650564
 20
131.97802981814823
 11
866.99134208060605
 21
131.95320851094016
  0
LINE
  8
_1-0_
  6
CONTINUOUS
 62
    6
 10
866.99134208060605
 20
131.95320851094016
 11
867.26445378483959
 21
132.07740783691406
  0
LINE
  8
_1-0_
  6
CONTINUOUS
 62
    6
 10
867.26445378483959
 20
132.07740783691406
 11
867.56249505120365
 21
132.47485805202174
  0
LINE
  8
_1-0_
  6
CONTINUOUS
 62
    6
 10
867.56249505120365
 20
132.47485805202174
 11
867.46320982237125
 21
133.0710179096944
  0
LINE
  8
_1-0_
  6
CONTINUOUS
 62
    6
 10
867.46320982237125
 20
133.0710179096944
 11
866.79264790303012
 21
134.28809707229206
  0
LINE
  8
_1-0_
  6
CONTINUOUS
 62
    6
 10
866.79264790303012
 20
134.28809707229206
 11
866.56927160314626
 21
134.66052493533573
  0
LINE
  8
_1-0_
  6
CONTINUOUS
 62
    6
 10
866.56927160314626
 20
134.66052493533573
 11
866.12208598368875
 21
135.30640473236906
  0
LINE
  8
_1-0_
  6
CONTINUOUS
 62
    6
 10
866.12208598368875
 20
135.30640473236906
 11
865.67502408414282
 21
135.85290651063659
  0
LINE
  8
_1-0_
  6
CONTINUOUS
 62
    6
 10
865.67502408414282
 20
135.85290651063659
 11
865.32712369351782
 21
136.02674845102669
  0
LINE
  8
_1-0_
  6
CONTINUOUS
 62
    6
 10
865.32712369351782
 20
136.02674845102669
 11
864.87999993401615
 21
135.95228452940248
  0
LINE
  8
_1-0_
  6
CONTINUOUS
 62
    6
 10
864.87999993401615
 20
135.95228452940248
 11
864.65643805426521
 21
135.55494256921719
  0
LINE
  8
_1-0_
  6
CONTINUOUS
 62
    6
 10
864.65643805426521
 20
135.55494256921719
 11
864.7805909852724
 21
135.15747688912057
  0
LINE
  8
_1-0_
  6
CONTINUOUS
 62
    6
 10
864.7805909852724
 20
135.15747688912057
 11
865.55068557326865
 21
133.89063139219544
  0
LINE
  8
_1-0_
  6
CONTINUOUS
 62
    6
 10
865.55068557326865
 20
133.89063139219544
 11
866.27085917704812
 21
132.47485805202174
  0
LINE
  8
_1-0_
  6
CONTINUOUS
 62
    6
 10
853.85166889912387
 20
135.75363674679318
 11
853.85166889912387
 21
115.68397058022988
  0
LINE
  8
_1-0_
  6
CONTINUOUS
 62
    6
 10
853.85166889912387
 20
115.68397058022988
 11
853.97588369008656
 21
115.08785711752402
  0
LINE
  8
_1-0_
  6
CONTINUOUS
 62
    6
 10
853.97588369008656
 20
115.08785711752402
 11
854.07529263883032
 21
114.93860450950834
  0
LINE
  8
_1-0_
  6
CONTINUOUS
 62
    6
 10
854.07529263883032
 20
114.93860450950834
 11
854.34840434306375
 21
114.73999538937129
  0
LINE
  8
_1-0_
  6
CONTINUOUS
 62
    6
 10
854.34840434306375
 20
114.73999538937129
 11
854.74573083826022
 21
114.69039916992187
  0
LINE
  8
_1-0_
  6
CONTINUOUS
 62
    6
 10
854.74573083826022
 20
114.69039916992187
 11
855.29238726641677
 21
114.83944300058724
  0
LINE
  8
_1-0_
  6
CONTINUOUS
 62
    6
 10
855.29238726641677
 20
114.83944300058724
 11
855.41635461755709
 21
114.93860450950834
  0
LINE
  8
_1-0_
  6
CONTINUOUS
 62
    6
 10
855.41635461755709
 20
114.93860450950834
 11
855.59055225269219
 21
115.23678496077252
  0
LINE
  8
_1-0_
  6
CONTINUOUS
 62
    6
 10
855.59055225269219
 20
115.23678496077252
 11
855.63997835726354
 21
115.68397058022988
  0
LINE
  8
_1-0_
  6
CONTINUOUS
 62
    6
 10
855.63997835726354
 20
115.68397058022988
 11
855.63997835726354
 21
127.5070860579207
  0
LINE
  8
_1-0_
  6
CONTINUOUS
 62
    6
 10
855.63997835726354
 20
127.5070860579207
 11
858.64550616290114
 21
126.81161004143789
  0
LINE
  8
_1-0_
  6
CONTINUOUS
 62
    6
 10
858.64550616290114
 20
126.81161004143789
 11
859.63903891073699
 21
126.53833595482084
  0
LINE
  8
_1-0_
  6
CONTINUOUS
 62
    6
 10
859.63903891073699
 20
126.53833595482084
 11
861.6013604241449
 21
125.94239260699297
  0
LINE
  8
_1-0_
  6
CONTINUOUS
 62
    6
 10
861.6013604241449
 20
125.94239260699297
 11
861.42753394874376
 21
125.99195016397012
  0
LINE
  8
_1-0_
  6
CONTINUOUS
 62
    6
 10
861.42753394874376
 20
125.99195016397012
 11
863.56362007759708
 21
125.2467928705989
  0
LINE
  8
_1-0_
  6
CONTINUOUS
 62
    6
 10
863.56362007759708
 20
125.2467928705989
 11
864.25917341902448
 21
124.99837875366211
  0
LINE
  8
_1-0_
  6
CONTINUOUS
 62
    6
 10
864.25917341902448
 20
124.99837875366211
 11
865.67502408414282
 21
124.42713299313105
  0
LINE
  8
_1-0_
  6
CONTINUOUS
 62
    6
 10
865.67502408414282
 20
124.42713299313105
 11
867.06569774730792
 21
123.83090354300833
  0
LINE
  8
_1-0_
  6
CONTINUOUS
 62
    6
 10
867.06569774730792
 20
123.83090354300833
 11
867.73650710647178
 21
123.75643962138412
  0
LINE
  8
_1-0_
  6
CONTINUOUS
 62
    6
 10
867.73650710647178
 20
123.75643962138412
 11
867.91039544182865
 21
123.80612089827252
  0
LINE
  8
_1-0_
  6
CONTINUOUS
 62
    6
 10
867.91039544182865
 20
123.80612089827252
 11
868.23324255041189
 21
124.00496972573769
  0
LINE
  8
_1-0_
  6
CONTINUOUS
 62
    6
 10
868.23324255041189
 20
124.00496972573769
 11
868.45680443016261
 21
124.32777043935417
  0
LINE
  8
_1-0_
  6
CONTINUOUS
 62
    6
 10
868.45680443016261
 20
124.32777043935417
 11
868.50641611460094
 21
124.99837875366211
  0
LINE
  8
_1-0_
  6
CONTINUOUS
 62
    6
 10
868.50641611460094
 20
124.99837875366211
 11
868.45680443016261
 21
125.19711159371042
  0
LINE
  8
_1-0_
  6
CONTINUOUS
 62
    6
 10
868.45680443016261
 20
125.19711159371042
 11
868.23324255041189
 21
125.54492692689635
  0
LINE
  8
_1-0_
  6
CONTINUOUS
 62
    6
 10
868.23324255041189
 20
125.54492692689635
 11
867.86053631756761
 21
125.81808502609668
  0
LINE
  8
_1-0_
  6
CONTINUOUS
 62
    6
 10
867.86053631756761
 20
125.81808502609668
 11
866.24617705474043
 21
126.46387203319655
  0
LINE
  8
_1-0_
  6
CONTINUOUS
 62
    6
 10
866.24617705474043
 20
126.46387203319655
 11
865.67502408414282
 21
126.66256621077252
  0
LINE
  8
_1-0_
  6
CONTINUOUS
 62
    6
 10
865.67502408414282
 20
126.66256621077252
 11
864.50754114099459
 21
127.03516418869434
  0
LINE
  8
_1-0_
  6
CONTINUOUS
 62
    6
 10
864.50754114099459
 20
127.03516418869434
 11
863.29038465345229
 21
127.40772350414382
  0
LINE
  8
_1-0_
  6
CONTINUOUS
 62
    6
 10
863.29038465345229
 20
127.40772350414382
 11
860.85619539827917
 21
128.07833955094623
  0
LINE
  8
_1-0_
  6
CONTINUOUS
 62
    6
 10
860.85619539827917
 20
128.07833955094623
 11
859.93708017710094
 21
128.30197102314719
  0
LINE
  8
_1-0_
  6
CONTINUOUS
 62
    6
 10
859.93708017710094
 20
128.30197102314719
 11
857.90040299699115
 21
128.74903292269323
  0
LINE
  8
_1-0_
  6
CONTINUOUS
 62
    6
 10
857.90040299699115
 20
128.74903292269323
 11
855.63997835726354
 21
129.19625720462284
  0
LINE
  8
_1-0_
  6
CONTINUOUS
 62
    6
 10
855.63997835726354
 20
129.19625720462284
 11
855.63997835726354
 21
135.75363674679318
  0
LINE
  8
_1-0_
  6
CONTINUOUS
 62
    6
 10
855.63997835726354
 20
135.75363674679318
 11
855.51601100612334
 21
136.34973474451016
  0
LINE
  8
_1-0_
  6
CONTINUOUS
 62
    6
 10
855.51601100612334
 20
136.34973474451016
 11
855.41635461755709
 21
136.49878630767
  0
LINE
  8
_1-0_
  6
CONTINUOUS
 62
    6
 10
855.41635461755709
 20
136.49878630767
 11
855.1433666332349
 21
136.67258185309336
  0
LINE
  8
_1-0_
  6
CONTINUOUS
 62
    6
 10
855.1433666332349
 20
136.67258185309336
 11
854.74573083826022
 21
136.74715402963997
  0
LINE
  8
_1-0_
  6
CONTINUOUS
 62
    6
 10
854.74573083826022
 20
136.74715402963997
 11
854.19938370988177
 21
136.59814886144687
  0
LINE
  8
_1-0_
  6
CONTINUOUS
 62
    6
 10
854.19938370988177
 20
136.59814886144687
 11
854.07529263883032
 21
136.49878630767
  0
LINE
  8
_1-0_
  6
CONTINUOUS
 62
    6
 10
854.07529263883032
 20
136.49878630767
 11
853.90109500369522
 21
136.17578454919766
  0
LINE
  8
_1-0_
  6
CONTINUOUS
 62
    6
 10
853.90109500369522
 20
136.17578454919766
 11
853.85166889912387
 21
135.75363674679318
  0
LINE
  8
_1-0_
  6
CONTINUOUS
 62
    6
 10
894.61935919684333
 20
135.75363674679318
 11
876.83486938476562
 21
135.75363674679318
  0
LINE
  8
_1-0_
  6
CONTINUOUS
 62
    6
 10
876.83486938476562
 20
135.75363674679318
 11
876.36300164300053
 21
135.62928277093008
  0
LINE
  8
_1-0_
  6
CONTINUOUS
 62
    6
 10
876.36300164300053
 20
135.62928277093008
 11
876.23878685203761
 21
135.53004393706453
  0
LINE
  8
_1-0_
  6
CONTINUOUS
 62
    6
 10
876.23878685203761
 20
135.53004393706453
 11
876.08995179872272
 21
135.25680851291966
  0
LINE
  8
_1-0_
  6
CONTINUOUS
 62
    6
 10
876.08995179872272
 20
135.25680851291966
 11
876.0401545344173
 21
134.85934283282305
  0
LINE
  8
_1-0_
  6
CONTINUOUS
 62
    6
 10
876.0401545344173
 20
134.85934283282305
 11
876.16430746542449
 21
134.31284105455552
  0
LINE
  8
_1-0_
  6
CONTINUOUS
 62
    6
 10
876.16430746542449
 20
134.31284105455552
 11
876.23878685203761
 21
134.18881184345969
  0
LINE
  8
_1-0_
  6
CONTINUOUS
 62
    6
 10
876.23878685203761
 20
134.18881184345969
 11
876.48721643396334
 21
134.01486164814719
  0
LINE
  8
_1-0_
  6
CONTINUOUS
 62
    6
 10
876.48721643396334
 20
134.01486164814719
 11
876.83486938476562
 21
133.96521903373099
  0
LINE
  8
_1-0_
  6
CONTINUOUS
 62
    6
 10
876.83486938476562
 20
133.96521903373099
 11
894.12256189294772
 21
133.96521903373099
  0
LINE
  8
_1-0_
  6
CONTINUOUS
 62
    6
 10
894.12256189294772
 20
133.96521903373099
 11
894.8429829365499
 21
133.89063139219544
  0
LINE
  8
_1-0_
  6
CONTINUOUS
 62
    6
 10
894.8429829365499
 20
133.89063139219544
 11
895.41425962705875
 21
133.66708497743346
  0
LINE
  8
_1-0_
  6
CONTINUOUS
 62
    6
 10
895.41425962705875
 20
133.66708497743346
 11
895.71230089342282
 21
133.26966569230365
  0
LINE
  8
_1-0_
  6
CONTINUOUS
 62
    6
 10
895.71230089342282
 20
133.26966569230365
 11
895.81158612225511
 21
132.67367594950912
  0
LINE
  8
_1-0_
  6
CONTINUOUS
 62
    6
 10
895.81158612225511
 20
132.67367594950912
 11
895.63775964685397
 21
131.33236653095969
  0
LINE
  8
_1-0_
  6
CONTINUOUS
 62
    6
 10
895.63775964685397
 20
131.33236653095969
 11
895.51360671584678
 21
130.88513451653554
  0
LINE
  8
_1-0_
  6
CONTINUOUS
 62
    6
 10
895.51360671584678
 20
130.88513451653554
 11
895.14090048300261
 21
129.96618941023542
  0
LINE
  8
_1-0_
  6
CONTINUOUS
 62
    6
 10
895.14090048300261
 20
129.96618941023542
 11
895.19075960726354
 21
130.04065333185969
  0
LINE
  8
_1-0_
  6
CONTINUOUS
 62
    6
 10
895.19075960726354
 20
130.04065333185969
 11
894.64428875897386
 21
129.02230700931034
  0
LINE
  8
_1-0_
  6
CONTINUOUS
 62
    6
 10
894.64428875897386
 20
129.02230700931034
 11
894.42072687922303
 21
128.6744452811576
  0
LINE
  8
_1-0_
  6
CONTINUOUS
 62
    6
 10
894.42072687922303
 20
128.6744452811576
 11
893.89912373310824
 21
128.00387562932195
  0
LINE
  8
_1-0_
  6
CONTINUOUS
 62
    6
 10
893.89912373310824
 20
128.00387562932195
 11
893.32772332268803
 21
127.30843827531146
  0
LINE
  8
_1-0_
  6
CONTINUOUS
 62
    6
 10
893.32772332268803
 20
127.30843827531146
 11
891.63876095333626
 21
125.91737025492904
  0
LINE
  8
_1-0_
  6
CONTINUOUS
 62
    6
 10
891.63876095333626
 20
125.91737025492904
 11
891.0426165606525
 21
125.54492692689635
  0
LINE
  8
_1-0_
  6
CONTINUOUS
 62
    6
 10
891.0426165606525
 20
125.54492692689635
 11
889.82564565297719
 21
124.89905486235749
  0
LINE
  8
_1-0_
  6
CONTINUOUS
 62
    6
 10
889.82564565297719
 20
124.89905486235749
 11
888.55881562104105
 21
124.42713299313105
  0
LINE
  8
_1-0_
  6
CONTINUOUS
 62
    6
 10
888.55881562104105
 20
124.42713299313105
 11
888.13649770375844
 21
124.05453501520931
  0
LINE
  8
_1-0_
  6
CONTINUOUS
 62
    6
 10
888.13649770375844
 20
124.05453501520931
 11
888.06214203705667
 21
123.5328468116554
  0
LINE
  8
_1-0_
  6
CONTINUOUS
 62
    6
 10
888.06214203705667
 20
123.5328468116554
 11
888.36005958350938
 21
123.13546618899785
  0
LINE
  8
_1-0_
  6
CONTINUOUS
 62
    6
 10
888.36005958350938
 20
123.13546618899785
 11
888.48427437447208
 21
123.06100226737357
  0
LINE
  8
_1-0_
  6
CONTINUOUS
 62
    6
 10
888.48427437447208
 20
123.06100226737357
 11
888.78231564083626
 21
122.98646102080475
  0
LINE
  8
_1-0_
  6
CONTINUOUS
 62
    6
 10
888.78231564083626
 20
122.98646102080475
 11
889.15483629381345
 21
123.03621962263776
  0
LINE
  8
_1-0_
  6
CONTINUOUS
 62
    6
 10
889.15483629381345
 20
123.03621962263776
 11
890.99300487621417
 21
123.73169563912057
  0
LINE
  8
_1-0_
  6
CONTINUOUS
 62
    6
 10
890.99300487621417
 20
123.73169563912057
 11
891.56415784681167
 21
123.98007109358502
  0
LINE
  8
_1-0_
  6
CONTINUOUS
 62
    6
 10
891.56415784681167
 20
123.98007109358502
 11
892.63229370117187
 21
124.55135551658842
  0
LINE
  8
_1-0_
  6
CONTINUOUS
 62
    6
 10
892.63229370117187
 20
124.55135551658842
 11
892.53307033229521
 21
124.50159691475534
  0
LINE
  8
_1-0_
  6
CONTINUOUS
 62
    6
 10
892.53307033229521
 20
124.50159691475534
 11
893.60102060678844
 21
125.19711159371042
  0
LINE
  8
_1-0_
  6
CONTINUOUS
 62
    6
 10
893.60102060678844
 20
125.19711159371042
 11
893.92380585541605
 21
125.44556437311947
  0
LINE
  8
_1-0_
  6
CONTINUOUS
 62
    6
 10
893.92380585541605
 20
125.44556437311947
 11
894.54494167018584
 21
125.96712885676205
  0
LINE
  8
_1-0_
  6
CONTINUOUS
 62
    6
 10
894.54494167018584
 20
125.96712885676205
 11
895.11621836069469
 21
126.51363836752402
  0
LINE
  8
_1-0_
  6
CONTINUOUS
 62
    6
 10
895.11621836069469
 20
126.51363836752402
 11
896.33318926836989
 21
128.15296585495412
  0
LINE
  8
_1-0_
  6
CONTINUOUS
 62
    6
 10
896.33318926836989
 20
128.15296585495412
 11
896.6315398345123
 21
128.69935164580477
  0
LINE
  8
_1-0_
  6
CONTINUOUS
 62
    6
 10
896.6315398345123
 20
128.69935164580477
 11
897.177825102935
 21
129.84200554925039
  0
LINE
  8
_1-0_
  6
CONTINUOUS
 62
    6
 10
897.177825102935
 20
129.84200554925039
 11
897.12821341849667
 21
129.74264299547349
  0
LINE
  8
_1-0_
  6
CONTINUOUS
 62
    6
 10
897.12821341849667
 20
129.74264299547349
 11
897.52572549356
 21
131.03418607969544
  0
LINE
  8
_1-0_
  6
CONTINUOUS
 62
    6
 10
897.52572549356
 20
131.03418607969544
 11
897.62482514252542
 21
131.45642667203333
  0
LINE
  8
_1-0_
  6
CONTINUOUS
 62
    6
 10
897.62482514252542
 20
131.45642667203333
 11
897.74916365339948
 21
132.35067419103672
  0
LINE
  8
_1-0_
  6
CONTINUOUS
 62
    6
 10
897.74916365339948
 20
132.35067419103672
 11
897.79877533783792
 21
133.26966569230365
  0
LINE
  8
_1-0_
  6
CONTINUOUS
 62
    6
 10
897.79877533783792
 20
133.26966569230365
 11
897.7242959512248
 21
134.16391321130703
  0
LINE
  8
_1-0_
  6
CONTINUOUS
 62
    6
 10
897.7242959512248
 20
134.16391321130703
 11
897.67437496700813
 21
134.41232732824375
  0
LINE
  8
_1-0_
  6
CONTINUOUS
 62
    6
 10
897.67437496700813
 20
134.41232732824375
 11
897.52572549356
 21
134.78487891119883
  0
LINE
  8
_1-0_
  6
CONTINUOUS
 62
    6
 10
897.52572549356
 20
134.78487891119883
 11
897.30216361380917
 21
135.05806794037687
  0
LINE
  8
_1-0_
  6
CONTINUOUS
 62
    6
 10
897.30216361380917
 20
135.05806794037687
 11
896.65622195682022
 21
135.48035492768156
  0
LINE
  8
_1-0_
  6
CONTINUOUS
 62
    6
 10
896.65622195682022
 20
135.48035492768156
 11
896.33318926836989
 21
135.57968655148068
  0
LINE
  8
_1-0_
  6
CONTINUOUS
 62
    6
 10
896.33318926836989
 20
135.57968655148068
 11
895.56321840028522
 21
135.70387041246568
  0
LINE
  8
_1-0_
  6
CONTINUOUS
 62
    6
 10
895.56321840028522
 20
135.70387041246568
 11
894.61935919684333
 21
135.75363674679318
  0
LINE
  8
_1-0_
  6
CONTINUOUS
 62
    6
 10
884.58456090978689
 20
130.48768430142786
 11
884.58456090978689
 21
127.01026555654167
  0
LINE
  8
_1-0_
  6
CONTINUOUS
 62
    6
 10
884.58456090978689
 20
127.01026555654167
 11
884.38574301229949
 21
124.72510466704499
  0
LINE
  8
_1-0_
  6
CONTINUOUS
 62
    6
 10
884.38574301229949
 20
124.72510466704499
 11
884.23684609902875
 21
124.00496972573769
  0
LINE
  8
_1-0_
  6
CONTINUOUS
 62
    6
 10
884.23684609902875
 20
124.00496972573769
 11
883.8146519016575
 21
122.66354431977142
  0
LINE
  8
_1-0_
  6
CONTINUOUS
 62
    6
 10
883.8146519016575
 20
122.66354431977142
 11
883.86426358609594
 21
122.78772818075645
  0
LINE
  8
_1-0_
  6
CONTINUOUS
 62
    6
 10
883.86426358609594
 20
122.78772818075645
 11
883.21850750897386
 21
121.4465038196461
  0
LINE
  8
_1-0_
  6
CONTINUOUS
 62
    6
 10
883.21850750897386
 20
121.4465038196461
 11
882.97007792704812
 21
120.999356862661
  0
LINE
  8
_1-0_
  6
CONTINUOUS
 62
    6
 10
882.97007792704812
 20
120.999356862661
 11
882.37387167440886
 21
120.20455695487357
  0
LINE
  8
_1-0_
  6
CONTINUOUS
 62
    6
 10
882.37387167440886
 20
120.20455695487357
 11
881.70349533493459
 21
119.45936099903008
  0
LINE
  8
_1-0_
  6
CONTINUOUS
 62
    6
 10
881.70349533493459
 20
119.45936099903008
 11
880.28752094990512
 21
118.19263148952174
  0
LINE
  8
_1-0_
  6
CONTINUOUS
 62
    6
 10
880.28752094990512
 20
118.19263148952174
 11
879.76604152370146
 21
117.82007990656673
  0
LINE
  8
_1-0_
  6
CONTINUOUS
 62
    6
 10
879.76604152370146
 20
117.82007990656673
 11
878.69772008947439
 21
117.09973618790912
  0
LINE
  8
_1-0_
  6
CONTINUOUS
 62
    6
 10
878.69772008947439
 20
117.09973618790912
 11
877.53048458614876
 21
116.47872409305059
  0
LINE
  8
_1-0_
  6
CONTINUOUS
 62
    6
 10
877.53048458614876
 20
116.47872409305059
 11
877.20763747756553
 21
116.10617251009558
  0
LINE
  8
_1-0_
  6
CONTINUOUS
 62
    6
 10
877.20763747756553
 20
116.10617251009558
 11
877.23231959987334
 21
115.58460029395853
  0
LINE
  8
_1-0_
  6
CONTINUOUS
 62
    6
 10
877.23231959987334
 20
115.58460029395853
 11
877.62964609506969
 21
115.18714234635638
  0
LINE
  8
_1-0_
  6
CONTINUOUS
 62
    6
 10
877.62964609506969
 20
115.18714234635638
 11
878.22597606762042
 21
115.18714234635638
  0
LINE
  8
_1-0_
  6
CONTINUOUS
 62
    6
 10
878.22597606762042
 20
115.18714234635638
 11
880.18805014120574
 21
116.15576872954499
  0
LINE
  8
_1-0_
  6
CONTINUOUS
 62
    6
 10
880.18805014120574
 20
116.15576872954499
 11
880.80930967588688
 21
116.5532344096416
  0
LINE
  8
_1-0_
  6
CONTINUOUS
 62
    6
 10
880.80930967588688
 20
116.5532344096416
 11
882.02621872360646
 21
117.44747419615052
  0
LINE
  8
_1-0_
  6
CONTINUOUS
 62
    6
 10
882.02621872360646
 20
117.44747419615052
 11
883.19351608688771
 21
118.465789588722
  0
LINE
  8
_1-0_
  6
CONTINUOUS
 62
    6
 10
883.19351608688771
 20
118.465789588722
 11
884.31144920555323
 21
119.75745639285527
  0
LINE
  8
_1-0_
  6
CONTINUOUS
 62
    6
 10
884.31144920555323
 20
119.75745639285527
 11
884.6094904719173
 21
120.25428462672878
  0
LINE
  8
_1-0_
  6
CONTINUOUS
 62
    6
 10
884.6094904719173
 20
120.25428462672878
 11
885.18064344251479
 21
121.2974522564862
  0
LINE
  8
_1-0_
  6
CONTINUOUS
 62
    6
 10
885.18064344251479
 20
121.2974522564862
 11
885.00694068702501
 21
120.92489294103672
  0
LINE
  8
_1-0_
  6
CONTINUOUS
 62
    6
 10
885.00694068702501
 20
120.92489294103672
 11
885.62789092192793
 21
122.4400752299541
  0
LINE
  8
_1-0_
  6
CONTINUOUS
 62
    6
 10
885.62789092192793
 20
122.4400752299541
 11
885.57827923748948
 21
122.29089994688294
  0
LINE
  8
_1-0_
  6
CONTINUOUS
 62
    6
 10
885.57827923748948
 20
122.29089994688294
 11
886.0748291015625
 21
124.10413123465872
  0
LINE
  8
_1-0_
  6
CONTINUOUS
 62
    6
 10
886.0748291015625
 20
124.10413123465872
 11
886.17436177021762
 21
124.75012701910899
  0
LINE
  8
_1-0_
  6
CONTINUOUS
 62
    6
 10
886.17436177021762
 20
124.75012701910899
 11
886.32325868348835
 21
126.14095533216322
  0
LINE
  8
_1-0_
  6
CONTINUOUS
 62
    6
 10
886.32325868348835
 20
126.14095533216322
 11
886.37293222788219
 21
127.60653366913665
  0
LINE
  8
_1-0_
  6
CONTINUOUS
 62
    6
 10
886.37293222788219
 20
127.60653366913665
 11
886.37293222788219
 21
130.48768430142786
  0
LINE
  8
_1-0_
  6
CONTINUOUS
 62
    6
 10
886.37293222788219
 20
130.48768430142786
 11
886.24890301678636
 21
131.15841633564719
  0
LINE
  8
_1-0_
  6
CONTINUOUS
 62
    6
 10
886.24890301678636
 20
131.15841633564719
 11
886.14943220808698
 21
131.30746789880703
  0
LINE
  8
_1-0_
  6
CONTINUOUS
 62
    6
 10
886.14943220808698
 20
131.30746789880703
 11
885.87613492398657
 21
131.50611568141628
  0
LINE
  8
_1-0_
  6
CONTINUOUS
 62
    6
 10
885.87613492398657
 20
131.50611568141628
 11
885.47893214870146
 21
131.58065692798516
  0
LINE
  8
_1-0_
  6
CONTINUOUS
 62
    6
 10
885.47893214870146
 20
131.58065692798516
 11
884.93239944045615
 21
131.43165175979206
  0
LINE
  8
_1-0_
  6
CONTINUOUS
 62
    6
 10
884.93239944045615
 20
131.43165175979206
 11
884.80818464949323
 21
131.30746789880703
  0
LINE
  8
_1-0_
  6
CONTINUOUS
 62
    6
 10
884.80818464949323
 20
131.30746789880703
 11
884.63423445418073
 21
130.95972215807114
  0
LINE
  8
_1-0_
  6
CONTINUOUS
 62
    6
 10
884.63423445418073
 20
130.95972215807114
 11
884.58456090978689
 21
130.48768430142786
  0
LINE
  8
_1-0_
  6
CONTINUOUS
 62
    6
 10
921.27877312737553
 20
133.96521903373099
 11
905.97820797482063
 21
133.96521903373099
  0
LINE
  8
_1-0_
  6
CONTINUOUS
 62
    6
 10
905.97820797482063
 20
133.96521903373099
 11
905.48153439083626
 21
133.84103517274596
  0
LINE
  8
_1-0_
  6
CONTINUOUS
 62
    6
 10
905.48153439083626
 20
133.84103517274596
 11
905.35719587996198
 21
133.74157982903554
  0
LINE
  8
_1-0_
  6
CONTINUOUS
 62
    6
 10
905.35719587996198
 20
133.74157982903554
 11
905.18343126451657
 21
133.46846812480209
  0
LINE
  8
_1-0_
  6
CONTINUOUS
 62
    6
 10
905.18343126451657
 20
133.46846812480209
 11
905.08396045581719
 21
133.0710179096944
  0
LINE
  8
_1-0_
  6
CONTINUOUS
 62
    6
 10
905.08396045581719
 20
133.0710179096944
 11
905.25784879117407
 21
132.52454706140469
  0
LINE
  8
_1-0_
  6
CONTINUOUS
 62
    6
 10
905.25784879117407
 20
132.52454706140469
 11
905.35719587996198
 21
132.40039413039753
  0
LINE
  8
_1-0_
  6
CONTINUOUS
 62
    6
 10
905.35719587996198
 20
132.40039413039753
 11
905.63043130410688
 21
132.22644393508503
  0
LINE
  8
_1-0_
  6
CONTINUOUS
 62
    6
 10
905.63043130410688
 20
132.22644393508503
 11
905.97820797482063
 21
132.17672399572422
  0
LINE
  8
_1-0_
  6
CONTINUOUS
 62
    6
 10
905.97820797482063
 20
132.17672399572422
 11
921.08001708984375
 21
132.17672399572422
  0
LINE
  8
_1-0_
  6
CONTINUOUS
 62
    6
 10
921.08001708984375
 20
132.17672399572422
 11
921.99900859111062
 21
132.02779615247573
  0
LINE
  8
_1-0_
  6
CONTINUOUS
 62
    6
 10
921.99900859111062
 20
132.02779615247573
 11
922.19795020850938
 21
131.90356589652396
  0
LINE
  8
_1-0_
  6
CONTINUOUS
 62
    6
 10
922.19795020850938
 20
131.90356589652396
 11
922.47112377269855
 21
131.55588201574375
  0
LINE
  8
_1-0_
  6
CONTINUOUS
 62
    6
 10
922.47112377269855
 20
131.55588201574375
 11
922.57053272144219
 21
131.08395241402292
  0
LINE
  8
_1-0_
  6
CONTINUOUS
 62
    6
 10
922.57053272144219
 20
131.08395241402292
 11
922.57053272144219
 21
120.0555131242082
  0
LINE
  8
_1-0_
  6
CONTINUOUS
 62
    6
 10
922.57053272144219
 20
120.0555131242082
 11
922.32197941960521
 21
119.08676302110827
  0
LINE
  8
_1-0_
  6
CONTINUOUS
 62
    6
 10
922.32197941960521
 20
119.08676302110827
 11
922.12328524202917
 21
118.86324753632415
  0
LINE
  8
_1-0_
  6
CONTINUOUS
 62
    6
 10
922.12328524202917
 20
118.86324753632415
 11
921.57681439373948
 21
118.56527586241029
  0
LINE
  8
_1-0_
  6
CONTINUOUS
 62
    6
 10
921.57681439373948
 20
118.56527586241029
 11
920.78209954339115
 21
118.465789588722
  0
LINE
  8
_1-0_
  6
CONTINUOUS
 62
    6
 10
920.78209954339115
 20
118.465789588722
 11
905.97820797482063
 21
118.465789588722
  0
LINE
  8
_1-0_
  6
CONTINUOUS
 62
    6
 10
905.97820797482063
 20
118.465789588722
 11
905.48153439083626
 21
118.34155933277032
  0
LINE
  8
_1-0_
  6
CONTINUOUS
 62
    6
 10
905.48153439083626
 20
118.34155933277032
 11
905.35719587996198
 21
118.24227410393789
  0
LINE
  8
_1-0_
  6
CONTINUOUS
 62
    6
 10
905.35719587996198
 20
118.24227410393789
 11
905.18343126451657
 21
117.9691237372321
  0
LINE
  8
_1-0_
  6
CONTINUOUS
 62
    6
 10
905.18343126451657
 20
117.9691237372321
 11
905.08396045581719
 21
117.57166578962995
  0
LINE
  8
_1-0_
  6
CONTINUOUS
 62
    6
 10
905.08396045581719
 20
117.57166578962995
 11
905.25784879117407
 21
117.02515627886797
  0
LINE
  8
_1-0_
  6
CONTINUOUS
 62
    6
 10
905.25784879117407
 20
117.02515627886797
 11
905.35719587996198
 21
116.90097241788294
  0
LINE
  8
_1-0_
  6
CONTINUOUS
 62
    6
 10
905.35719587996198
 20
116.90097241788294
 11
905.63043130410688
 21
116.72713820998737
  0
LINE
  8
_1-0_
  6
CONTINUOUS
 62
    6
 10
905.63043130410688
 20
116.72713820998737
 11
905.97820797482063
 21
116.6773796081543
  0
LINE
  8
_1-0_
  6
CONTINUOUS
 62
    6
 10
905.97820797482063
 20
116.6773796081543
 11
921.17936417863177
 21
116.6773796081543
  0
LINE
  8
_1-0_
  6
CONTINUOUS
 62
    6
 10
921.17936417863177
 20
116.6773796081543
 11
922.27236773516677
 21
116.77686588184258
  0
LINE
  8
_1-0_
  6
CONTINUOUS
 62
    6
 10
922.27236773516677
 20
116.77686588184258
 11
922.57053272144219
 21
116.87606605323587
  0
LINE
  8
_1-0_
  6
CONTINUOUS
 62
    6
 10
922.57053272144219
 20
116.87606605323587
 11
923.11700356973188
 21
117.12460389008392
  0
LINE
  8
_1-0_
  6
CONTINUOUS
 62
    6
 10
923.11700356973188
 20
117.12460389008392
 11
923.56406546927792
 21
117.47217951594173
  0
LINE
  8
_1-0_
  6
CONTINUOUS
 62
    6
 10
923.56406546927792
 20
117.47217951594173
 11
924.06080091321792
 21
118.16773285736907
  0
LINE
  8
_1-0_
  6
CONTINUOUS
 62
    6
 10
924.06080091321792
 20
118.16773285736907
 11
924.16014800200605
 21
118.4410069439862
  0
LINE
  8
_1-0_
  6
CONTINUOUS
 62
    6
 10
924.16014800200605
 20
118.4410069439862
 11
924.30923049514365
 21
119.06189531893347
  0
LINE
  8
_1-0_
  6
CONTINUOUS
 62
    6
 10
924.30923049514365
 20
119.06189531893347
 11
924.3588421795821
 21
119.75745639285527
  0
LINE
  8
_1-0_
  6
CONTINUOUS
 62
    6
 10
924.3588421795821
 20
119.75745639285527
 11
924.3588421795821
 21
131.48141809411953
  0
LINE
  8
_1-0_
  6
CONTINUOUS
 62
    6
 10
924.3588421795821
 20
131.48141809411953
 11
924.25955695074958
 21
132.25131163725985
  0
LINE
  8
_1-0_
  6
CONTINUOUS
 62
    6
 10
924.25955695074958
 20
132.25131163725985
 11
924.18501570418073
 21
132.47485805202174
  0
LINE
  8
_1-0_
  6
CONTINUOUS
 62
    6
 10
924.18501570418073
 20
132.47485805202174
 11
923.96157754434125
 21
132.89719143429318
  0
LINE
  8
_1-0_
  6
CONTINUOUS
 62
    6
 10
923.96157754434125
 20
132.89719143429318
 11
923.66341255806583
 21
133.26966569230365
  0
LINE
  8
_1-0_
  6
CONTINUOUS
 62
    6
 10
923.66341255806583
 20
133.26966569230365
 11
922.99260319890209
 21
133.69198360958615
  0
LINE
  8
_1-0_
  6
CONTINUOUS
 62
    6
 10
922.99260319890209
 20
133.69198360958615
 11
922.71942963471292
 21
133.79134616336307
  0
LINE
  8
_1-0_
  6
CONTINUOUS
 62
    6
 10
922.71942963471292
 20
133.79134616336307
 11
922.07367355759084
 21
133.91549909437026
  0
LINE
  8
_1-0_
  6
CONTINUOUS
 62
    6
 10
922.07367355759084
 20
133.91549909437026
 11
921.27877312737553
 21
133.96521903373099
  0
LINE
  8
_1-0_
  6
CONTINUOUS
 62
    6
 10
952.11101222682646
 20
126.71228615013334
 11
938.00273585963896
 21
126.71228615013334
  0
LINE
  8
_1-0_
  6
CONTINUOUS
 62
    6
 10
938.00273585963896
 20
126.71228615013334
 11
936.81057079418292
 21
126.76185143960488
  0
LINE
  8
_1-0_
  6
CONTINUOUS
 62
    6
 10
936.81057079418292
 20
126.76185143960488
 11
936.46273226351354
 21
126.81161004143789
  0
LINE
  8
_1-0_
  6
CONTINUOUS
 62
    6
 10
936.46273226351354
 20
126.81161004143789
 11
935.81685246648021
 21
126.93580163491738
  0
LINE
  8
_1-0_
  6
CONTINUOUS
 62
    6
 10
935.81685246648021
 20
126.93580163491738
 11
935.22064621384084
 21
127.10962811031855
  0
LINE
  8
_1-0_
  6
CONTINUOUS
 62
    6
 10
935.22064621384084
 20
127.10962811031855
 11
933.82978697080875
 21
127.60653366913665
  0
LINE
  8
_1-0_
  6
CONTINUOUS
 62
    6
 10
933.82978697080875
 20
127.60653366913665
 11
933.30830754460521
 21
127.60653366913665
  0
LINE
  8
_1-0_
  6
CONTINUOUS
 62
    6
 10
933.30830754460521
 20
127.60653366913665
 11
933.15903947160052
 21
127.53195376009558
  0
LINE
  8
_1-0_
  6
CONTINUOUS
 62
    6
 10
933.15903947160052
 20
127.53195376009558
 11
932.91067174963064
 21
127.28353964315879
  0
LINE
  8
_1-0_
  6
CONTINUOUS
 62
    6
 10
932.91067174963064
 20
127.28353964315879
 11
932.73684527422927
 21
126.91110404762064
  0
LINE
  8
_1-0_
  6
CONTINUOUS
 62
    6
 10
932.73684527422927
 20
126.91110404762064
 11
932.71203943201022
 21
126.41419075630807
  0
LINE
  8
_1-0_
  6
CONTINUOUS
 62
    6
 10
932.71203943201022
 20
126.41419075630807
 11
932.76189855627126
 21
126.26510053067591
  0
LINE
  8
_1-0_
  6
CONTINUOUS
 62
    6
 10
932.76189855627126
 20
126.26510053067591
 11
932.93578689162803
 21
125.96712885676205
  0
LINE
  8
_1-0_
  6
CONTINUOUS
 62
    6
 10
932.93578689162803
 20
125.96712885676205
 11
933.23376629803636
 21
125.71871473982526
  0
LINE
  8
_1-0_
  6
CONTINUOUS
 62
    6
 10
933.23376629803636
 20
125.71871473982526
 11
934.62481112093542
 21
125.22193290091849
  0
LINE
  8
_1-0_
  6
CONTINUOUS
 62
    6
 10
934.62481112093542
 20
125.22193290091849
 11
935.74237307986709
 21
124.92391483203789
  0
LINE
  8
_1-0_
  6
CONTINUOUS
 62
    6
 10
935.74237307986709
 20
124.92391483203789
 11
936.13988515493031
 21
124.84933492299675
  0
LINE
  8
_1-0_
  6
CONTINUOUS
 62
    6
 10
936.13988515493031
 20
124.84933492299675
 11
936.98439726958418
 21
124.75012701910899
  0
LINE
  8
_1-0_
  6
CONTINUOUS
 62
    6
 10
936.98439726958418
 20
124.75012701910899
 11
937.90332691089532
 21
124.72510466704499
  0
LINE
  8
_1-0_
  6
CONTINUOUS
 62
    6
 10
937.90332691089532
 20
124.72510466704499
 11
952.11101222682646
 21
124.72510466704499
  0
LINE
  8
_1-0_
  6
CONTINUOUS
 62
    6
 10
952.11101222682646
 20
124.72510466704499
 11
952.78182158599043
 21
124.87423355514942
  0
LINE
  8
_1-0_
  6
CONTINUOUS
 62
    6
 10
952.78182158599043
 20
124.87423355514942
 11
952.9308422191724
 21
124.9736425038931
  0
LINE
  8
_1-0_
  6
CONTINUOUS
 62
    6
 10
952.9308422191724
 20
124.9736425038931
 11
953.12959825670407
 21
125.27161417780697
  0
LINE
  8
_1-0_
  6
CONTINUOUS
 62
    6
 10
953.12959825670407
 20
125.27161417780697
 11
953.20395392340583
 21
125.71871473982526
  0
LINE
  8
_1-0_
  6
CONTINUOUS
 62
    6
 10
953.20395392340583
 20
125.71871473982526
 11
953.05505701013522
 21
126.31482820253112
  0
LINE
  8
_1-0_
  6
CONTINUOUS
 62
    6
 10
953.05505701013522
 20
126.31482820253112
 11
952.9308422191724
 21
126.46387203319655
  0
LINE
  8
_1-0_
  6
CONTINUOUS
 62
    6
 10
952.9308422191724
 20
126.46387203319655
 11
952.58306554845876
 21
126.63782222850905
  0
LINE
  8
_1-0_
  6
CONTINUOUS
 62
    6
 10
952.58306554845876
 20
126.63782222850905
 11
952.11101222682646
 21
126.71228615013334
  0
LINE
  8
_1-0_
  6
CONTINUOUS
 62
    6
 10
963.66849332242407
 20
127.80518145174597
 11
962.94825785868875
 21
125.27161417780697
  0
LINE
  8
_1-0_
  6
CONTINUOUS
 62
    6
 10
962.94825785868875
 20
125.27161417780697
 11
962.67496057458834
 21
124.42713299313105
  0
LINE
  8
_1-0_
  6
CONTINUOUS
 62
    6
 10
962.67496057458834
 20
124.42713299313105
 11
962.05401033968542
 21
122.76294553602064
  0
LINE
  8
_1-0_
  6
CONTINUOUS
 62
    6
 10
962.05401033968542
 20
122.76294553602064
 11
962.10356016416813
 21
122.91187337926914
  0
LINE
  8
_1-0_
  6
CONTINUOUS
 62
    6
 10
962.10356016416813
 20
122.91187337926914
 11
961.33377487595021
 21
121.12354072364603
  0
LINE
  8
_1-0_
  6
CONTINUOUS
 62
    6
 10
961.33377487595021
 20
121.12354072364603
 11
960.43946549699115
 21
119.33516940555059
  0
LINE
  8
_1-0_
  6
CONTINUOUS
 62
    6
 10
960.43946549699115
 20
119.33516940555059
 11
959.7937712798248
 21
118.16773285736907
  0
LINE
  8
_1-0_
  6
CONTINUOUS
 62
    6
 10
959.7937712798248
 20
118.16773285736907
 11
959.69442419103689
 21
117.62134706651842
  0
LINE
  8
_1-0_
  6
CONTINUOUS
 62
    6
 10
959.69442419103689
 20
117.62134706651842
 11
959.71923003325605
 21
117.47217951594173
  0
LINE
  8
_1-0_
  6
CONTINUOUS
 62
    6
 10
959.71923003325605
 20
117.47217951594173
 11
959.84338296426313
 21
117.1990678117082
  0
LINE
  8
_1-0_
  6
CONTINUOUS
 62
    6
 10
959.84338296426313
 20
117.1990678117082
 11
960.09181254618875
 21
116.97555232692409
  0
LINE
  8
_1-0_
  6
CONTINUOUS
 62
    6
 10
960.09181254618875
 20
116.97555232692409
 11
960.71288650100303
 21
116.97555232692409
  0
LINE
  8
_1-0_
  6
CONTINUOUS
 62
    6
 10
960.71288650100303
 20
116.97555232692409
 11
960.88665111644855
 21
117.02515627886797
  0
LINE
  8
_1-0_
  6
CONTINUOUS
 62
    6
 10
960.88665111644855
 20
117.02515627886797
 11
961.20949822503178
 21
117.22388911891628
  0
LINE
  8
_1-0_
  6
CONTINUOUS
 62
    6
 10
961.20949822503178
 20
117.22388911891628
 11
961.4827955091323
 21
117.57166578962995
  0
LINE
  8
_1-0_
  6
CONTINUOUS
 62
    6
 10
961.4827955091323
 20
117.57166578962995
 11
962.82422864759292
 21
119.90650022352064
  0
LINE
  8
_1-0_
  6
CONTINUOUS
 62
    6
 10
962.82422864759292
 20
119.90650022352064
 11
963.22149328283376
 21
120.70130013130807
  0
LINE
  8
_1-0_
  6
CONTINUOUS
 62
    6
 10
963.22149328283376
 20
120.70130013130807
 11
963.99158787082979
 21
122.36548758841849
  0
LINE
  8
_1-0_
  6
CONTINUOUS
 62
    6
 10
963.99158787082979
 20
122.36548758841849
 11
963.91679918443845
 21
122.21643602525866
  0
LINE
  8
_1-0_
  6
CONTINUOUS
 62
    6
 10
963.91679918443845
 20
122.21643602525866
 11
964.6620260702598
 21
124.10413123465872
  0
LINE
  8
_1-0_
  6
CONTINUOUS
 62
    6
 10
964.6620260702598
 20
124.10413123465872
 11
964.88558795001052
 21
124.75012701910899
  0
LINE
  8
_1-0_
  6
CONTINUOUS
 62
    6
 10
964.88558795001052
 20
124.75012701910899
 11
965.28322374498532
 21
126.06653780550573
  0
LINE
  8
_1-0_
  6
CONTINUOUS
 62
    6
 10
965.28322374498532
 20
126.06653780550573
 11
965.65568253800677
 21
127.40772350414382
  0
LINE
  8
_1-0_
  6
CONTINUOUS
 62
    6
 10
965.65568253800677
 20
127.40772350414382
 11
965.6308148358321
 21
128.02869693653008
  0
LINE
  8
_1-0_
  6
CONTINUOUS
 62
    6
 10
965.6308148358321
 20
128.02869693653008
 11
965.55639730917449
 21
128.20264713184258
  0
LINE
  8
_1-0_
  6
CONTINUOUS
 62
    6
 10
965.55639730917449
 20
128.20264713184258
 11
965.28322374498532
 21
128.4510612487793
  0
LINE
  8
_1-0_
  6
CONTINUOUS
 62
    6
 10
965.28322374498532
 20
128.4510612487793
 11
964.86090582770271
 21
128.59998135953333
  0
LINE
  8
_1-0_
  6
CONTINUOUS
 62
    6
 10
964.86090582770271
 20
128.59998135953333
 11
964.26476143501895
 21
128.52551743790912
  0
LINE
  8
_1-0_
  6
CONTINUOUS
 62
    6
 10
964.26476143501895
 20
128.52551743790912
 11
964.11555522197
 21
128.4510612487793
  0
LINE
  8
_1-0_
  6
CONTINUOUS
 62
    6
 10
964.11555522197
 20
128.4510612487793
 11
963.8671875
 21
128.17782582463445
  0
LINE
  8
_1-0_
  6
CONTINUOUS
 62
    6
 10
963.8671875
 20
128.17782582463445
 11
963.66849332242407
 21
127.80518145174597
  0
LINE
  8
_1-0_
  6
CONTINUOUS
 62
    6
 10
975.39243955869938
 20
127.60653366913665
 11
976.53486921980573
 21
125.44556437311947
  0
LINE
  8
_1-0_
  6
CONTINUOUS
 62
    6
 10
976.53486921980573
 20
125.44556437311947
 11
976.88270775047511
 21
124.67554711006784
  0
LINE
  8
_1-0_
  6
CONTINUOUS
 62
    6
 10
976.88270775047511
 20
124.67554711006784
 11
977.57832295185824
 21
123.06100226737357
  0
LINE
  8
_1-0_
  6
CONTINUOUS
 62
    6
 10
977.57832295185824
 20
123.06100226737357
 11
977.52858754750844
 21
123.2100538305334
  0
LINE
  8
_1-0_
  6
CONTINUOUS
 62
    6
 10
977.52858754750844
 20
123.2100538305334
 11
978.24888487119938
 21
121.34705620843008
  0
LINE
  8
_1-0_
  6
CONTINUOUS
 62
    6
 10
978.24888487119938
 20
121.34705620843008
 11
978.49743817303636
 21
120.70130013130807
  0
LINE
  8
_1-0_
  6
CONTINUOUS
 62
    6
 10
978.49743817303636
 20
120.70130013130807
 11
978.9445000725824
 21
119.35999071275866
  0
LINE
  8
_1-0_
  6
CONTINUOUS
 62
    6
 10
978.9445000725824
 20
119.35999071275866
 11
979.36650869008656
 21
117.9691237372321
  0
LINE
  8
_1-0_
  6
CONTINUOUS
 62
    6
 10
979.36650869008656
 20
117.9691237372321
 11
979.73927678288646
 21
117.39783931422878
  0
LINE
  8
_1-0_
  6
CONTINUOUS
 62
    6
 10
979.73927678288646
 20
117.39783931422878
 11
979.91316511824323
 21
117.27352400083802
  0
LINE
  8
_1-0_
  6
CONTINUOUS
 62
    6
 10
979.91316511824323
 20
117.27352400083802
 11
980.31067719330667
 21
117.14930147738073
  0
LINE
  8
_1-0_
  6
CONTINUOUS
 62
    6
 10
980.31067719330667
 20
117.14930147738073
 11
980.75761537294147
 21
117.17420010953333
  0
LINE
  8
_1-0_
  6
CONTINUOUS
 62
    6
 10
980.75761537294147
 20
117.17420010953333
 11
981.32889206345021
 21
117.4970781480944
  0
LINE
  8
_1-0_
  6
CONTINUOUS
 62
    6
 10
981.32889206345021
 20
117.4970781480944
 11
981.45310685441302
 21
117.67098968093464
  0
LINE
  8
_1-0_
  6
CONTINUOUS
 62
    6
 10
981.45310685441302
 20
117.67098968093464
 11
981.57732164537595
 21
118.06832390862539
  0
LINE
  8
_1-0_
  6
CONTINUOUS
 62
    6
 10
981.57732164537595
 20
118.06832390862539
 11
981.5525776631124
 21
118.56527586241029
  0
LINE
  8
_1-0_
  6
CONTINUOUS
 62
    6
 10
981.5525776631124
 20
118.56527586241029
 11
980.55885933540958
 21
121.37191617811048
  0
LINE
  8
_1-0_
  6
CONTINUOUS
 62
    6
 10
980.55885933540958
 20
121.37191617811048
 11
980.18621496252126
 21
122.26620235958613
  0
LINE
  8
_1-0_
  6
CONTINUOUS
 62
    6
 10
980.18621496252126
 20
122.26620235958613
 11
979.41630595439187
 21
123.95521112390469
  0
LINE
  8
_1-0_
  6
CONTINUOUS
 62
    6
 10
979.41630595439187
 20
123.95521112390469
 11
979.49097092087209
 21
123.80612089827252
  0
LINE
  8
_1-0_
  6
CONTINUOUS
 62
    6
 10
979.49097092087209
 20
123.80612089827252
 11
978.5717319797825
 21
125.54492692689635
  0
LINE
  8
_1-0_
  6
CONTINUOUS
 62
    6
 10
978.5717319797825
 20
125.54492692689635
 11
978.24888487119938
 21
126.11618041992187
  0
LINE
  8
_1-0_
  6
CONTINUOUS
 62
    6
 10
978.24888487119938
 20
126.11618041992187
 11
977.57832295185824
 21
127.18421575185417
  0
LINE
  8
_1-0_
  6
CONTINUOUS
 62
    6
 10
977.57832295185824
 20
127.18421575185417
 11
976.88270775047511
 21
128.20264713184258
  0
LINE
  8
_1-0_
  6
CONTINUOUS
 62
    6
 10
976.88270775047511
 20
128.20264713184258
 11
976.43564585092918
 21
128.57520644729206
  0
LINE
  8
_1-0_
  6
CONTINUOUS
 62
    6
 10
976.43564585092918
 20
128.57520644729206
 11
976.28662521774709
 21
128.64974769386089
  0
LINE
  8
_1-0_
  6
CONTINUOUS
 62
    6
 10
976.28662521774709
 20
128.64974769386089
 11
975.98864581133864
 21
128.6744452811576
  0
LINE
  8
_1-0_
  6
CONTINUOUS
 62
    6
 10
975.98864581133864
 20
128.6744452811576
 11
975.69041896510771
 21
128.59998135953333
  0
LINE
  8
_1-0_
  6
CONTINUOUS
 62
    6
 10
975.69041896510771
 20
128.59998135953333
 11
975.36757185652448
 21
128.32675366788294
  0
LINE
  8
_1-0_
  6
CONTINUOUS
 62
    6
 10
975.36757185652448
 20
128.32675366788294
 11
975.31802203204177
 21
128.20264713184258
  0
LINE
  8
_1-0_
  6
CONTINUOUS
 62
    6
 10
975.31802203204177
 20
128.20264713184258
 11
975.29309246991136
 21
127.92941170769765
  0
LINE
  8
_1-0_
  6
CONTINUOUS
 62
    6
 10
975.29309246991136
 20
127.92941170769765
 11
975.39243955869938
 21
127.60653366913665
  0
LINE
  8
_1-0_
  6
CONTINUOUS
 62
    6
 10
969.72909875818209
 20
132.87232373211836
 11
960.78730402766053
 21
132.87232373211836
  0
LINE
  8
_1-0_
  6
CONTINUOUS
 62
    6
 10
960.78730402766053
 20
132.87232373211836
 11
960.19109777502126
 21
132.74813987113333
  0
LINE
  8
_1-0_
  6
CONTINUOUS
 62
    6
 10
960.19109777502126
 20
132.74813987113333
 11
960.04201528188344
 21
132.64880824733424
  0
LINE
  8
_1-0_
  6
CONTINUOUS
 62
    6
 10
960.04201528188344
 20
132.64880824733424
 11
959.86818880648229
 21
132.37557282318937
  0
LINE
  8
_1-0_
  6
CONTINUOUS
 62
    6
 10
959.86818880648229
 20
132.37557282318937
 11
959.7937712798248
 21
131.97802981814823
  0
LINE
  8
_1-0_
  6
CONTINUOUS
 62
    6
 10
959.7937712798248
 20
131.97802981814823
 11
959.94279191300677
 21
131.43165175979206
  0
LINE
  8
_1-0_
  6
CONTINUOUS
 62
    6
 10
959.94279191300677
 20
131.43165175979206
 11
960.04201528188344
 21
131.30746789880703
  0
LINE
  8
_1-0_
  6
CONTINUOUS
 62
    6
 10
960.04201528188344
 20
131.30746789880703
 11
960.36510983028938
 21
131.13354863347234
  0
LINE
  8
_1-0_
  6
CONTINUOUS
 62
    6
 10
960.36510983028938
 20
131.13354863347234
 11
960.78730402766053
 21
131.08395241402292
  0
LINE
  8
_1-0_
  6
CONTINUOUS
 62
    6
 10
960.78730402766053
 20
131.08395241402292
 11
969.72909875818209
 21
131.08395241402292
  0
LINE
  8
_1-0_
  6
CONTINUOUS
 62
    6
 10
969.72909875818209
 20
131.08395241402292
 11
969.72909875818209
 21
115.88265702531146
  0
LINE
  8
_1-0_
  6
CONTINUOUS
 62
    6
 10
969.72909875818209
 20
115.88265702531146
 11
969.85343726905626
 21
115.28650490013334
  0
LINE
  8
_1-0_
  6
CONTINUOUS
 62
    6
 10
969.85343726905626
 20
115.28650490013334
 11
969.95272249788854
 21
115.13742240699564
  0
LINE
  8
_1-0_
  6
CONTINUOUS
 62
    6
 10
969.95272249788854
 20
115.13742240699564
 11
970.22601978198907
 21
114.93860450950834
  0
LINE
  8
_1-0_
  6
CONTINUOUS
 62
    6
 10
970.22601978198907
 20
114.93860450950834
 11
970.62334627718542
 21
114.88904695253112
  0
LINE
  8
_1-0_
  6
CONTINUOUS
 62
    6
 10
970.62334627718542
 20
114.88904695253112
 11
971.16987898543073
 21
115.03809078319655
  0
LINE
  8
_1-0_
  6
CONTINUOUS
 62
    6
 10
971.16987898543073
 20
115.03809078319655
 11
971.29397005648229
 21
115.13742240699564
  0
LINE
  8
_1-0_
  6
CONTINUOUS
 62
    6
 10
971.29397005648229
 20
115.13742240699564
 11
971.46798211175053
 21
115.43543274338184
  0
LINE
  8
_1-0_
  6
CONTINUOUS
 62
    6
 10
971.46798211175053
 20
115.43543274338184
 11
971.51759379618875
 21
115.88265702531146
  0
LINE
  8
_1-0_
  6
CONTINUOUS
 62
    6
 10
971.51759379618875
 20
115.88265702531146
 11
971.51759379618875
 21
131.08395241402292
  0
LINE
  8
_1-0_
  6
CONTINUOUS
 62
    6
 10
971.51759379618875
 20
131.08395241402292
 11
980.55885933540958
 21
131.08395241402292
  0
LINE
  8
_1-0_
  6
CONTINUOUS
 62
    6
 10
980.55885933540958
 20
131.08395241402292
 11
981.15506558804907
 21
131.20813627500794
  0
LINE
  8
_1-0_
  6
CONTINUOUS
 62
    6
 10
981.15506558804907
 20
131.20813627500794
 11
981.30414808118667
 21
131.30746789880703
  0
LINE
  8
_1-0_
  6
CONTINUOUS
 62
    6
 10
981.30414808118667
 20
131.30746789880703
 11
981.50259481894011
 21
131.58065692798516
  0
LINE
  8
_1-0_
  6
CONTINUOUS
 62
    6
 10
981.50259481894011
 20
131.58065692798516
 11
981.5525776631124
 21
131.97802981814823
  0
LINE
  8
_1-0_
  6
CONTINUOUS
 62
    6
 10
981.5525776631124
 20
131.97802981814823
 11
981.45310685441302
 21
132.42526183257235
  0
LINE
  8
_1-0_
  6
CONTINUOUS
 62
    6
 10
981.45310685441302
 20
132.42526183257235
 11
981.15506558804907
 21
132.77283745843008
  0
LINE
  8
_1-0_
  6
CONTINUOUS
 62
    6
 10
981.15506558804907
 20
132.77283745843008
 11
981.70147457638313
 21
133.02137529527818
  0
LINE
  8
_1-0_
  6
CONTINUOUS
 62
    6
 10
981.70147457638313
 20
133.02137529527818
 11
982.1485983358848
 21
133.36910557102513
  0
LINE
  8
_1-0_
  6
CONTINUOUS
 62
    6
 10
982.1485983358848
 20
133.36910557102513
 11
982.64539563978042
 21
134.01486164814719
  0
LINE
  8
_1-0_
  6
CONTINUOUS
 62
    6
 10
982.64539563978042
 20
134.01486164814719
 11
982.74474272856855
 21
134.2632757650839
  0
LINE
  8
_1-0_
  6
CONTINUOUS
 62
    6
 10
982.74474272856855
 20
134.2632757650839
 11
982.89370150179479
 21
134.78487891119883
  0
LINE
  8
_1-0_
  6
CONTINUOUS
 62
    6
 10
982.89370150179479
 20
134.78487891119883
 11
982.9432513262775
 21
135.35617106669662
  0
LINE
  8
_1-0_
  6
CONTINUOUS
 62
    6
 10
982.9432513262775
 20
135.35617106669662
 11
982.84408981735646
 21
136.20065225137245
  0
LINE
  8
_1-0_
  6
CONTINUOUS
 62
    6
 10
982.84408981735646
 20
136.20065225137245
 11
982.74474272856855
 21
136.44906636830925
  0
LINE
  8
_1-0_
  6
CONTINUOUS
 62
    6
 10
982.74474272856855
 20
136.44906636830925
 11
982.49643686655418
 21
136.92098050504114
  0
LINE
  8
_1-0_
  6
CONTINUOUS
 62
    6
 10
982.49643686655418
 20
136.92098050504114
 11
982.1485983358848
 21
137.34326749234583
  0
LINE
  8
_1-0_
  6
CONTINUOUS
 62
    6
 10
982.1485983358848
 20
137.34326749234583
 11
981.50259481894011
 21
137.81527441901133
  0
LINE
  8
_1-0_
  6
CONTINUOUS
 62
    6
 10
981.50259481894011
 20
137.81527441901133
 11
981.25422709697
 21
137.93930363010716
  0
LINE
  8
_1-0_
  6
CONTINUOUS
 62
    6
 10
981.25422709697
 20
137.93930363010716
 11
980.73287139067793
 21
138.08850984315612
  0
LINE
  8
_1-0_
  6
CONTINUOUS
 62
    6
 10
980.73287139067793
 20
138.08850984315612
 11
980.16153284021334
 21
138.13807513262773
  0
LINE
  8
_1-0_
  6
CONTINUOUS
 62
    6
 10
980.16153284021334
 20
138.13807513262773
 11
979.31695886560397
 21
138.01392220162057
  0
LINE
  8
_1-0_
  6
CONTINUOUS
 62
    6
 10
979.31695886560397
 20
138.01392220162057
 11
979.06859114363385
 21
137.93930363010716
  0
LINE
  8
_1-0_
  6
CONTINUOUS
 62
    6
 10
979.06859114363385
 20
137.93930363010716
 11
978.5965996819574
 21
137.69104416305959
  0
LINE
  8
_1-0_
  6
CONTINUOUS
 62
    6
 10
978.5965996819574
 20
137.69104416305959
 11
978.1742817646749
 21
137.34326749234583
  0
LINE
  8
_1-0_
  6
CONTINUOUS
 62
    6
 10
978.1742817646749
 20
137.34326749234583
 11
977.70241402290958
 21
136.69748048524596
  0
LINE
  8
_1-0_
  6
CONTINUOUS
 62
    6
 10
977.70241402290958
 20
136.69748048524596
 11
977.57832295185824
 21
136.44906636830925
  0
LINE
  8
_1-0_
  6
CONTINUOUS
 62
    6
 10
977.57832295185824
 20
136.44906636830925
 11
977.42936417863177
 21
135.92749415217219
  0
LINE
  8
_1-0_
  6
CONTINUOUS
 62
    6
 10
977.42936417863177
 20
135.92749415217219
 11
977.3794431944151
 21
135.35617106669662
  0
LINE
  8
_1-0_
  6
CONTINUOUS
 62
    6
 10
977.3794431944151
 20
135.35617106669662
 11
977.50390542520063
 21
134.51161255707609
  0
LINE
  8
_1-0_
  6
CONTINUOUS
 62
    6
 10
977.50390542520063
 20
134.51161255707609
 11
977.57832295185824
 21
134.2632757650839
  0
LINE
  8
_1-0_
  6
CONTINUOUS
 62
    6
 10
977.57832295185824
 20
134.2632757650839
 11
977.8266288138725
 21
133.79134616336307
  0
LINE
  8
_1-0_
  6
CONTINUOUS
 62
    6
 10
977.8266288138725
 20
133.79134616336307
 11
978.1742817646749
 21
133.36910557102513
  0
LINE
  8
_1-0_
  6
CONTINUOUS
 62
    6
 10
978.1742817646749
 20
133.36910557102513
 11
978.5717319797825
 21
133.04615020751953
  0
LINE
  8
_1-0_
  6
CONTINUOUS
 62
    6
 10
978.5717319797825
 20
133.04615020751953
 11
978.96918219489021
 21
132.87232373211836
  0
LINE
  8
_1-0_
  6
CONTINUOUS
 62
    6
 10
978.96918219489021
 20
132.87232373211836
 11
971.51759379618875
 21
132.87232373211836
  0
LINE
  8
_1-0_
  6
CONTINUOUS
 62
    6
 10
971.51759379618875
 20
132.87232373211836
 11
971.51759379618875
 21
135.75363674679318
  0
LINE
  8
_1-0_
  6
CONTINUOUS
 62
    6
 10
971.51759379618875
 20
135.75363674679318
 11
971.39337900522605
 21
136.34973474451016
  0
LINE
  8
_1-0_
  6
CONTINUOUS
 62
    6
 10
971.39337900522605
 20
136.34973474451016
 11
971.29397005648229
 21
136.49878630767
  0
LINE
  8
_1-0_
  6
CONTINUOUS
 62
    6
 10
971.29397005648229
 20
136.49878630767
 11
971.02092021220437
 21
136.67258185309336
  0
LINE
  8
_1-0_
  6
CONTINUOUS
 62
    6
 10
971.02092021220437
 20
136.67258185309336
 11
970.62334627718542
 21
136.74715402963997
  0
LINE
  8
_1-0_
  6
CONTINUOUS
 62
    6
 10
970.62334627718542
 20
136.74715402963997
 11
970.07693728885147
 21
136.59814886144687
  0
LINE
  8
_1-0_
  6
CONTINUOUS
 62
    6
 10
970.07693728885147
 20
136.59814886144687
 11
969.95272249788854
 21
136.49878630767
  0
LINE
  8
_1-0_
  6
CONTINUOUS
 62
    6
 10
969.95272249788854
 20
136.49878630767
 11
969.7788960224874
 21
136.17578454919766
  0
LINE
  8
_1-0_
  6
CONTINUOUS
 62
    6
 10
969.7788960224874
 20
136.17578454919766
 11
969.72909875818209
 21
135.75363674679318
  0
LINE
  8
_1-0_
  6
CONTINUOUS
 62
    6
 10
969.72909875818209
 20
135.75363674679318
 11
969.72909875818209
 21
132.87232373211836
  0
LINE
  8
_1-0_
  6
CONTINUOUS
 62
    6
 10
982.24806914458418
 20
135.35617106669662
 11
982.17346603805959
 21
134.73518990181589
  0
LINE
  8
_1-0_
  6
CONTINUOUS
 62
    6
 10
982.17346603805959
 20
134.73518990181589
 11
982.09886293153522
 21
134.53651118922878
  0
LINE
  8
_1-0_
  6
CONTINUOUS
 62
    6
 10
982.09886293153522
 20
134.53651118922878
 11
981.92503645613385
 21
134.18881184345969
  0
LINE
  8
_1-0_
  6
CONTINUOUS
 62
    6
 10
981.92503645613385
 20
134.18881184345969
 11
981.65180103198907
 21
133.86593380489865
  0
LINE
  8
_1-0_
  6
CONTINUOUS
 62
    6
 10
981.65180103198907
 20
133.86593380489865
 11
981.15506558804907
 21
133.49316571209883
  0
LINE
  8
_1-0_
  6
CONTINUOUS
 62
    6
 10
981.15506558804907
 20
133.49316571209883
 11
980.98123911264793
 21
133.41870179047453
  0
LINE
  8
_1-0_
  6
CONTINUOUS
 62
    6
 10
980.98123911264793
 20
133.41870179047453
 11
980.58366517762897
 21
133.29464164940092
  0
LINE
  8
_1-0_
  6
CONTINUOUS
 62
    6
 10
980.58366517762897
 20
133.29464164940092
 11
980.16153284021334
 21
133.26966569230365
  0
LINE
  8
_1-0_
  6
CONTINUOUS
 62
    6
 10
980.16153284021334
 20
133.26966569230365
 11
979.54064446526615
 21
133.34412961392786
  0
LINE
  8
_1-0_
  6
CONTINUOUS
 62
    6
 10
979.54064446526615
 20
133.34412961392786
 11
979.34182656777875
 21
133.41870179047453
  0
LINE
  8
_1-0_
  6
CONTINUOUS
 62
    6
 10
979.34182656777875
 20
133.41870179047453
 11
978.99398803710937
 21
133.59265198578703
  0
LINE
  8
_1-0_
  6
CONTINUOUS
 62
    6
 10
978.99398803710937
 20
133.59265198578703
 11
978.67120278848188
 21
133.86593380489865
  0
LINE
  8
_1-0_
  6
CONTINUOUS
 62
    6
 10
978.67120278848188
 20
133.86593380489865
 11
978.29849655563771
 21
134.36256099391628
  0
LINE
  8
_1-0_
  6
CONTINUOUS
 62
    6
 10
978.29849655563771
 20
134.36256099391628
 11
978.22389344911335
 21
134.53651118922878
  0
LINE
  8
_1-0_
  6
CONTINUOUS
 62
    6
 10
978.22389344911335
 20
134.53651118922878
 11
978.12454636032521
 21
134.93380675444735
  0
LINE
  8
_1-0_
  6
CONTINUOUS
 62
    6
 10
978.12454636032521
 20
134.93380675444735
 11
978.07505839579812
 21
135.35617106669662
  0
LINE
  8
_1-0_
  6
CONTINUOUS
 62
    6
 10
978.07505839579812
 20
135.35617106669662
 11
978.14947592245574
 21
135.97713676658842
  0
LINE
  8
_1-0_
  6
CONTINUOUS
 62
    6
 10
978.14947592245574
 20
135.97713676658842
 11
978.22389344911335
 21
136.17578454919766
  0
LINE
  8
_1-0_
  6
CONTINUOUS
 62
    6
 10
978.22389344911335
 20
136.17578454919766
 11
978.4226494866449
 21
136.52353028993346
  0
LINE
  8
_1-0_
  6
CONTINUOUS
 62
    6
 10
978.4226494866449
 20
136.52353028993346
 11
978.67120278848188
 21
136.84653204840586
  0
LINE
  8
_1-0_
  6
CONTINUOUS
 62
    6
 10
978.67120278848188
 20
136.84653204840586
 11
979.16800009237761
 21
137.21900630641628
  0
LINE
  8
_1-0_
  6
CONTINUOUS
 62
    6
 10
979.16800009237761
 20
137.21900630641628
 11
979.34182656777875
 21
137.29359394795188
  0
LINE
  8
_1-0_
  6
CONTINUOUS
 62
    6
 10
979.34182656777875
 20
137.29359394795188
 11
979.73927678288646
 21
137.39291010676203
  0
LINE
  8
_1-0_
  6
CONTINUOUS
 62
    6
 10
979.73927678288646
 20
137.39291010676203
 11
980.16153284021334
 21
137.44263004612279
  0
LINE
  8
_1-0_
  6
CONTINUOUS
 62
    6
 10
980.16153284021334
 20
137.44263004612279
 11
980.78242121516053
 21
137.36805786957609
  0
LINE
  8
_1-0_
  6
CONTINUOUS
 62
    6
 10
980.78242121516053
 20
137.36805786957609
 11
980.98123911264793
 21
137.29359394795188
  0
LINE
  8
_1-0_
  6
CONTINUOUS
 62
    6
 10
980.98123911264793
 20
137.29359394795188
 11
981.32889206345021
 21
137.09493070035364
  0
LINE
  8
_1-0_
  6
CONTINUOUS
 62
    6
 10
981.32889206345021
 20
137.09493070035364
 11
981.65180103198907
 21
136.84653204840586
  0
LINE
  8
_1-0_
  6
CONTINUOUS
 62
    6
 10
981.65180103198907
 20
136.84653204840586
 11
982.02456912478897
 21
136.34973474451016
  0
LINE
  8
_1-0_
  6
CONTINUOUS
 62
    6
 10
982.02456912478897
 20
136.34973474451016
 11
982.09886293153522
 21
136.17578454919766
  0
LINE
  8
_1-0_
  6
CONTINUOUS
 62
    6
 10
982.09886293153522
 20
136.17578454919766
 11
982.22295400258656
 21
135.77845805400131
  0
LINE
  8
_1-0_
  6
CONTINUOUS
 62
    6
 10
982.22295400258656
 20
135.77845805400131
 11
982.24806914458418
 21
135.35617106669662
  0
LINE
  8
_1-0_
  6
CONTINUOUS
 62
    6
 10
990.02992784654782
 20
135.05806794037687
 11
990.02992784654782
 21
119.26071321642077
  0
LINE
  8
_1-0_
  6
CONTINUOUS
 62
    6
 10
990.02992784654782
 20
119.26071321642077
 11
990.27829556851782
 21
117.74549226503112
  0
LINE
  8
_1-0_
  6
CONTINUOUS
 62
    6
 10
990.27829556851782
 20
117.74549226503112
 11
990.45236948374168
 21
117.34811164237357
  0
LINE
  8
_1-0_
  6
CONTINUOUS
 62
    6
 10
990.45236948374168
 20
117.34811164237357
 11
990.97378704998948
 21
116.6773796081543
  0
LINE
  8
_1-0_
  6
CONTINUOUS
 62
    6
 10
990.97378704998948
 20
116.6773796081543
 11
990.92398978568417
 21
116.72713820998737
  0
LINE
  8
_1-0_
  6
CONTINUOUS
 62
    6
 10
990.92398978568417
 20
116.72713820998737
 11
991.71882835594386
 21
116.20545000643347
  0
LINE
  8
_1-0_
  6
CONTINUOUS
 62
    6
 10
991.71882835594386
 20
116.20545000643347
 11
992.0419229043498
 21
116.08142852783203
  0
LINE
  8
_1-0_
  6
CONTINUOUS
 62
    6
 10
992.0419229043498
 20
116.08142852783203
 11
992.7621583680849
 21
115.93222231478308
  0
LINE
  8
_1-0_
  6
CONTINUOUS
 62
    6
 10
992.7621583680849
 20
115.93222231478308
 11
993.60673234269427
 21
115.88265702531146
  0
LINE
  8
_1-0_
  6
CONTINUOUS
 62
    6
 10
993.60673234269427
 20
115.88265702531146
 11
995.84216556033584
 21
116.08142852783203
  0
LINE
  8
_1-0_
  6
CONTINUOUS
 62
    6
 10
995.84216556033584
 20
116.08142852783203
 11
996.58726872624584
 21
116.2303563710806
  0
LINE
  8
_1-0_
  6
CONTINUOUS
 62
    6
 10
996.58726872624584
 20
116.2303563710806
 11
998.02773965371625
 21
116.65267428836309
  0
LINE
  8
_1-0_
  6
CONTINUOUS
 62
    6
 10
998.02773965371625
 20
116.65267428836309
 11
997.55593377190678
 21
116.50363045769765
  0
LINE
  8
_1-0_
  6
CONTINUOUS
 62
    6
 10
997.55593377190678
 20
116.50363045769765
 11
999.46864360087625
 21
117.24866403115762
  0
LINE
  8
_1-0_
  6
CONTINUOUS
 62
    6
 10
999.46864360087625
 20
117.24866403115762
 11
999.29463154560824
 21
117.17420010953333
  0
LINE
  8
_1-0_
  6
CONTINUOUS
 62
    6
 10
999.29463154560824
 20
117.17420010953333
 11
1001.3315561655406
 21
118.3168617454735
  0
LINE
  8
_1-0_
  6
CONTINUOUS
 62
    6
 10
1001.3315561655406
 20
118.3168617454735
 11
1002.0021799448375
 21
118.78866762728308
  0
LINE
  8
_1-0_
  6
CONTINUOUS
 62
    6
 10
1002.0021799448375
 20
118.78866762728308
 11
1003.3434275034313
 21
119.83199763942409
  0
LINE
  8
_1-0_
  6
CONTINUOUS
 62
    6
 10
1003.3434275034313
 20
119.83199763942409
 11
1004.6350633775866
 21
121.04907680202174
  0
LINE
  8
_1-0_
  6
CONTINUOUS
 62
    6
 10
1004.6350633775866
 20
121.04907680202174
 11
1005.9514432340056
 21
122.51441543166706
  0
LINE
  8
_1-0_
  6
CONTINUOUS
 62
    6
 10
1005.9514432340056
 20
122.51441543166706
 11
1006.373761151288
 21
123.06100226737357
  0
LINE
  8
_1-0_
  6
CONTINUOUS
 62
    6
 10
1006.373761151288
 20
123.06100226737357
 11
1007.1439794591956
 21
124.17871887619434
  0
LINE
  8
_1-0_
  6
CONTINUOUS
 62
    6
 10
1007.1439794591956
 20
124.17871887619434
 11
1007.0691907728042
 21
124.07935632241738
  0
LINE
  8
_1-0_
  6
CONTINUOUS
 62
    6
 10
1007.0691907728042
 20
124.07935632241738
 11
1007.8641530629751
 21
125.39584443375873
  0
LINE
  8
_1-0_
  6
CONTINUOUS
 62
    6
 10
1007.8641530629751
 20
125.39584443375873
 11
1008.1123352050781
 21
125.84290633330475
  0
LINE
  8
_1-0_
  6
CONTINUOUS
 62
    6
 10
1008.1123352050781
 20
125.84290633330475
 11
1008.5596445444469
 21
126.81161004143789
  0
LINE
  8
_1-0_
  6
CONTINUOUS
 62
    6
 10
1008.5596445444469
 20
126.81161004143789
 11
1009.0065827240815
 21
127.80518145174597
  0
LINE
  8
_1-0_
  6
CONTINUOUS
 62
    6
 10
1009.0065827240815
 20
127.80518145174597
 11
1009.081185830606
 21
128.32675366788294
  0
LINE
  8
_1-0_
  6
CONTINUOUS
 62
    6
 10
1009.081185830606
 20
128.32675366788294
 11
1009.0316360061233
 21
128.47579749854839
  0
LINE
  8
_1-0_
  6
CONTINUOUS
 62
    6
 10
1009.0316360061233
 20
128.47579749854839
 11
1008.833003688503
 21
128.72421161548516
  0
LINE
  8
_1-0_
  6
CONTINUOUS
 62
    6
 10
1008.833003688503
 20
128.72421161548516
 11
1008.5098472801416
 21
128.89796076594172
  0
LINE
  8
_1-0_
  6
CONTINUOUS
 62
    6
 10
1008.5098472801416
 20
128.89796076594172
 11
1007.9138266073692
 21
128.89796076594172
  0
LINE
  8
_1-0_
  6
CONTINUOUS
 62
    6
 10
1007.9138266073692
 20
128.89796076594172
 11
1007.5162526723501
 21
128.50070386319544
  0
LINE
  8
_1-0_
  6
CONTINUOUS
 62
    6
 10
1007.5162526723501
 20
128.50070386319544
 11
1006.6967938397383
 21
126.78675007175755
  0
LINE
  8
_1-0_
  6
CONTINUOUS
 62
    6
 10
1006.6967938397383
 20
126.78675007175755
 11
1006.373761151288
 21
126.2403642809069
  0
LINE
  8
_1-0_
  6
CONTINUOUS
 62
    6
 10
1006.373761151288
 20
126.2403642809069
 11
1005.7527490564296
 21
125.19711159371042
  0
LINE
  8
_1-0_
  6
CONTINUOUS
 62
    6
 10
1005.7527490564296
 20
125.19711159371042
 11
1005.8024226008235
 21
125.2965205424541
  0
LINE
  8
_1-0_
  6
CONTINUOUS
 62
    6
 10
1005.8024226008235
 20
125.2965205424541
 11
1005.0324517327387
 21
124.22836149061048
  0
LINE
  8
_1-0_
  6
CONTINUOUS
 62
    6
 10
1005.0324517327387
 20
124.22836149061048
 11
1004.7841458707244
 21
123.90548345204948
  0
LINE
  8
_1-0_
  6
CONTINUOUS
 62
    6
 10
1004.7841458707244
 20
123.90548345204948
 11
1004.2127454603042
 21
123.25961138751055
  0
LINE
  8
_1-0_
  6
CONTINUOUS
 62
    6
 10
1004.2127454603042
 20
123.25961138751055
 11
1003.6414687697952
 21
122.63876167503568
  0
LINE
  8
_1-0_
  6
CONTINUOUS
 62
    6
 10
1003.6414687697952
 20
122.63876167503568
 11
1001.7785562051311
 21
120.94971424824486
  0
LINE
  8
_1-0_
  6
CONTINUOUS
 62
    6
 10
1001.7785562051311
 20
120.94971424824486
 11
1001.1328001280089
 21
120.45297107181035
  0
LINE
  8
_1-0_
  6
CONTINUOUS
 62
    6
 10
1001.1328001280089
 20
120.45297107181035
 11
999.9157055004224
 21
119.60840482969544
  0
LINE
  8
_1-0_
  6
CONTINUOUS
 62
    6
 10
999.9157055004224
 20
119.60840482969544
 11
1000.3130319956188
 21
119.85681894663216
  0
LINE
  8
_1-0_
  6
CONTINUOUS
 62
    6
 10
1000.3130319956188
 20
119.85681894663216
 11
998.67392875052792
 21
118.91297520817936
  0
LINE
  8
_1-0_
  6
CONTINUOUS
 62
    6
 10
998.67392875052792
 20
118.91297520817936
 11
998.82276380384292
 21
118.98755511722051
  0
LINE
  8
_1-0_
  6
CONTINUOUS
 62
    6
 10
998.82276380384292
 20
118.98755511722051
 11
997.03451620565886
 21
118.24227410393789
  0
LINE
  8
_1-0_
  6
CONTINUOUS
 62
    6
 10
997.03451620565886
 20
118.24227410393789
 11
996.46323951515001
 21
118.06832390862539
  0
LINE
  8
_1-0_
  6
CONTINUOUS
 62
    6
 10
996.46323951515001
 20
118.06832390862539
 11
995.27088886982699
 21
117.84481615633581
  0
LINE
  8
_1-0_
  6
CONTINUOUS
 62
    6
 10
995.27088886982699
 20
117.84481615633581
 11
994.10334406672303
 21
117.77035223471152
  0
LINE
  8
_1-0_
  6
CONTINUOUS
 62
    6
 10
994.10334406672303
 20
117.77035223471152
 11
992.81177005252334
 21
117.9939837069125
  0
LINE
  8
_1-0_
  6
CONTINUOUS
 62
    6
 10
992.81177005252334
 20
117.9939837069125
 11
992.38963771510771
 21
118.26709541114603
  0
LINE
  8
_1-0_
  6
CONTINUOUS
 62
    6
 10
992.38963771510771
 20
118.26709541114603
 11
992.0419229043498
 21
118.71431969307565
  0
LINE
  8
_1-0_
  6
CONTINUOUS
 62
    6
 10
992.0419229043498
 20
118.71431969307565
 11
991.96731979782521
 21
118.8880688435323
  0
LINE
  8
_1-0_
  6
CONTINUOUS
 62
    6
 10
991.96731979782521
 20
118.8880688435323
 11
991.84316686681814
 21
119.28553452362884
  0
LINE
  8
_1-0_
  6
CONTINUOUS
 62
    6
 10
991.84316686681814
 20
119.28553452362884
 11
991.81817544473188
 21
119.75745639285527
  0
LINE
  8
_1-0_
  6
CONTINUOUS
 62
    6
 10
991.81817544473188
 20
119.75745639285527
 11
991.81817544473188
 21
135.05806794037687
  0
LINE
  8
_1-0_
  6
CONTINUOUS
 62
    6
 10
991.81817544473188
 20
135.05806794037687
 11
991.69408437368031
 21
135.65425872802734
  0
LINE
  8
_1-0_
  6
CONTINUOUS
 62
    6
 10
991.69408437368031
 20
135.65425872802734
 11
991.59479914484803
 21
135.80331029118719
  0
LINE
  8
_1-0_
  6
CONTINUOUS
 62
    6
 10
991.59479914484803
 20
135.80331029118719
 11
991.32168744061448
 21
135.97713676658842
  0
LINE
  8
_1-0_
  6
CONTINUOUS
 62
    6
 10
991.32168744061448
 20
135.97713676658842
 11
990.92398978568417
 21
136.05160068821263
  0
LINE
  8
_1-0_
  6
CONTINUOUS
 62
    6
 10
990.92398978568417
 20
136.05160068821263
 11
990.37758079735011
 21
135.90254912505281
  0
LINE
  8
_1-0_
  6
CONTINUOUS
 62
    6
 10
990.37758079735011
 20
135.90254912505281
 11
990.25342786634292
 21
135.80331029118719
  0
LINE
  8
_1-0_
  6
CONTINUOUS
 62
    6
 10
990.25342786634292
 20
135.80331029118719
 11
990.07960139094178
 21
135.48035492768156
  0
LINE
  8
_1-0_
  6
CONTINUOUS
 62
    6
 10
990.07960139094178
 20
135.48035492768156
 11
990.02992784654782
 21
135.05806794037687
  0
LINE
  8
_1-0_
  6
CONTINUOUS
 62
    6
 10
1035.9639760610221
 20
126.71228615013334
 11
1021.8558234137458
 21
126.71228615013334
  0
LINE
  8
_1-0_
  6
CONTINUOUS
 62
    6
 10
1021.8558234137458
 20
126.71228615013334
 11
1020.6636583482897
 21
126.76185143960488
  0
LINE
  8
_1-0_
  6
CONTINUOUS
 62
    6
 10
1020.6636583482897
 20
126.76185143960488
 11
1020.3157579576647
 21
126.81161004143789
  0
LINE
  8
_1-0_
  6
CONTINUOUS
 62
    6
 10
1020.3157579576647
 20
126.81161004143789
 11
1019.6700018805427
 21
126.93580163491738
  0
LINE
  8
_1-0_
  6
CONTINUOUS
 62
    6
 10
1019.6700018805427
 20
126.93580163491738
 11
1019.0736100480364
 21
127.10962811031855
  0
LINE
  8
_1-0_
  6
CONTINUOUS
 62
    6
 10
1019.0736100480364
 20
127.10962811031855
 11
1017.6827508050043
 21
127.60653366913665
  0
LINE
  8
_1-0_
  6
CONTINUOUS
 62
    6
 10
1017.6827508050043
 20
127.60653366913665
 11
1017.1612713788008
 21
127.60653366913665
  0
LINE
  8
_1-0_
  6
CONTINUOUS
 62
    6
 10
1017.1612713788008
 20
127.60653366913665
 11
1017.012188885663
 21
127.53195376009558
  0
LINE
  8
_1-0_
  6
CONTINUOUS
 62
    6
 10
1017.012188885663
 20
127.53195376009558
 11
1016.7637593037374
 21
127.28353964315879
  0
LINE
  8
_1-0_
  6
CONTINUOUS
 62
    6
 10
1016.7637593037374
 20
127.28353964315879
 11
1016.5899946882918
 21
126.91110404762064
  0
LINE
  8
_1-0_
  6
CONTINUOUS
 62
    6
 10
1016.5899946882918
 20
126.91110404762064
 11
1016.5651269861171
 21
126.41419075630807
  0
LINE
  8
_1-0_
  6
CONTINUOUS
 62
    6
 10
1016.5651269861171
 20
126.41419075630807
 11
1016.6148623904667
 21
126.26510053067591
  0
LINE
  8
_1-0_
  6
CONTINUOUS
 62
    6
 10
1016.6148623904667
 20
126.26510053067591
 11
1016.7886888658678
 21
125.96712885676205
  0
LINE
  8
_1-0_
  6
CONTINUOUS
 62
    6
 10
1016.7886888658678
 20
125.96712885676205
 11
1017.0867919921875
 21
125.71871473982526
  0
LINE
  8
_1-0_
  6
CONTINUOUS
 62
    6
 10
1017.0867919921875
 20
125.71871473982526
 11
1018.4777749551311
 21
125.22193290091849
  0
LINE
  8
_1-0_
  6
CONTINUOUS
 62
    6
 10
1018.4777749551311
 20
125.22193290091849
 11
1019.5955224939296
 21
124.92391483203789
  0
LINE
  8
_1-0_
  6
CONTINUOUS
 62
    6
 10
1019.5955224939296
 20
124.92391483203789
 11
1019.992663409259
 21
124.84933492299675
  0
LINE
  8
_1-0_
  6
CONTINUOUS
 62
    6
 10
1019.992663409259
 20
124.84933492299675
 11
1020.8374848236908
 21
124.75012701910899
  0
LINE
  8
_1-0_
  6
CONTINUOUS
 62
    6
 10
1020.8374848236908
 20
124.75012701910899
 11
1021.7563526050465
 21
124.72510466704499
  0
LINE
  8
_1-0_
  6
CONTINUOUS
 62
    6
 10
1021.7563526050465
 20
124.72510466704499
 11
1035.9639760610221
 21
124.72510466704499
  0
LINE
  8
_1-0_
  6
CONTINUOUS
 62
    6
 10
1035.9639760610221
 20
124.72510466704499
 11
1036.6349091400971
 21
124.87423355514942
  0
LINE
  8
_1-0_
  6
CONTINUOUS
 62
    6
 10
1036.6349091400971
 20
124.87423355514942
 11
1036.7836823334565
 21
124.9736425038931
  0
LINE
  8
_1-0_
  6
CONTINUOUS
 62
    6
 10
1036.7836823334565
 20
124.9736425038931
 11
1036.9825620908996
 21
125.27161417780697
  0
LINE
  8
_1-0_
  6
CONTINUOUS
 62
    6
 10
1036.9825620908996
 20
125.27161417780697
 11
1037.0568558976456
 21
125.71871473982526
  0
LINE
  8
_1-0_
  6
CONTINUOUS
 62
    6
 10
1037.0568558976456
 20
125.71871473982526
 11
1036.9078971244194
 21
126.31482820253112
  0
LINE
  8
_1-0_
  6
CONTINUOUS
 62
    6
 10
1036.9078971244194
 20
126.31482820253112
 11
1036.7836823334565
 21
126.46387203319655
  0
LINE
  8
_1-0_
  6
CONTINUOUS
 62
    6
 10
1036.7836823334565
 20
126.46387203319655
 11
1036.4361531025654
 21
126.63782222850905
  0
LINE
  8
_1-0_
  6
CONTINUOUS
 62
    6
 10
1036.4361531025654
 20
126.63782222850905
 11
1035.9639760610221
 21
126.71228615013334
  0
LINE
  8
_1-0_
  6
CONTINUOUS
 62
    6
 10
1063.5175137906463
 20
131.97802981814823
 11
1062.8222078890415
 21
129.34518504787135
  0
LINE
  8
_1-0_
  6
CONTINUOUS
 62
    6
 10
1062.8222078890415
 20
129.34518504787135
 11
1062.5242903425888
 21
128.52551743790912
  0
LINE
  8
_1-0_
  6
CONTINUOUS
 62
    6
 10
1062.5242903425888
 20
128.52551743790912
 11
1062.1266545476142
 21
127.48231114567936
  0
LINE
  8
_1-0_
  6
CONTINUOUS
 62
    6
 10
1062.1266545476142
 20
127.48231114567936
 11
1061.2077867662586
 21
125.52002829474375
  0
LINE
  8
_1-0_
  6
CONTINUOUS
 62
    6
 10
1061.2077867662586
 20
125.52002829474375
 11
1061.3067626953125
 21
125.69385477014492
  0
LINE
  8
_1-0_
  6
CONTINUOUS
 62
    6
 10
1061.3067626953125
 20
125.69385477014492
 11
1060.164333034206
 21
123.78126092859219
  0
LINE
  8
_1-0_
  6
CONTINUOUS
 62
    6
 10
1060.164333034206
 20
123.78126092859219
 11
1059.7422006967906
 21
123.2100538305334
  0
LINE
  8
_1-0_
  6
CONTINUOUS
 62
    6
 10
1059.7422006967906
 20
123.2100538305334
 11
1058.8232091955238
 21
122.11707347148177
  0
LINE
  8
_1-0_
  6
CONTINUOUS
 62
    6
 10
1058.8232091955238
 20
122.11707347148177
 11
1057.8546060098186
 21
121.14840842582083
  0
LINE
  8
_1-0_
  6
CONTINUOUS
 62
    6
 10
1057.8546060098186
 20
121.14840842582083
 11
1056.1654580605998
 21
119.90650022352064
  0
LINE
  8
_1-0_
  6
CONTINUOUS
 62
    6
 10
1056.1654580605998
 20
119.90650022352064
 11
1055.5693755278717
 21
119.5588472727183
  0
LINE
  8
_1-0_
  6
CONTINUOUS
 62
    6
 10
1055.5693755278717
 20
119.5588472727183
 11
1054.277615933805
 21
118.8880688435323
  0
LINE
  8
_1-0_
  6
CONTINUOUS
 62
    6
 10
1054.277615933805
 20
118.8880688435323
 11
1054.7247396933067
 21
119.08676302110827
  0
LINE
  8
_1-0_
  6
CONTINUOUS
 62
    6
 10
1054.7247396933067
 20
119.08676302110827
 11
1052.8867566907729
 21
118.3168617454735
  0
LINE
  8
_1-0_
  6
CONTINUOUS
 62
    6
 10
1052.8867566907729
 20
118.3168617454735
 11
1053.0605831661742
 21
118.39132566709779
  0
LINE
  8
_1-0_
  6
CONTINUOUS
 62
    6
 10
1053.0605831661742
 20
118.39132566709779
 11
1050.8996911951015
 21
117.72070962029531
  0
LINE
  8
_1-0_
  6
CONTINUOUS
 62
    6
 10
1050.8996911951015
 20
117.72070962029531
 11
1050.1296584670608
 21
117.54675942498281
  0
LINE
  8
_1-0_
  6
CONTINUOUS
 62
    6
 10
1050.1296584670608
 20
117.54675942498281
 11
1048.5149899044554
 21
117.27352400083802
  0
LINE
  8
_1-0_
  6
CONTINUOUS
 62
    6
 10
1048.5149899044554
 20
117.27352400083802
 11
1046.8259656751479
 21
117.07483755575645
  0
LINE
  8
_1-0_
  6
CONTINUOUS
 62
    6
 10
1046.8259656751479
 20
117.07483755575645
 11
1046.2297594225086
 21
116.87606605323587
  0
LINE
  8
_1-0_
  6
CONTINUOUS
 62
    6
 10
1046.2297594225086
 20
116.87606605323587
 11
1046.0809243691936
 21
116.77686588184258
  0
LINE
  8
_1-0_
  6
CONTINUOUS
 62
    6
 10
1046.0809243691936
 20
116.77686588184258
 11
1045.9070978937923
 21
116.47872409305059
  0
LINE
  8
_1-0_
  6
CONTINUOUS
 62
    6
 10
1045.9070978937923
 20
116.47872409305059
 11
1045.8323710673565
 21
116.08142852783203
  0
LINE
  8
_1-0_
  6
CONTINUOUS
 62
    6
 10
1045.8323710673565
 20
116.08142852783203
 11
1045.9814535604942
 21
115.58460029395853
  0
LINE
  8
_1-0_
  6
CONTINUOUS
 62
    6
 10
1045.9814535604942
 20
115.58460029395853
 11
1046.0809243691936
 21
115.4604164329735
  0
LINE
  8
_1-0_
  6
CONTINUOUS
 62
    6
 10
1046.0809243691936
 20
115.4604164329735
 11
1046.4039570576435
 21
115.28650490013334
  0
LINE
  8
_1-0_
  6
CONTINUOUS
 62
    6
 10
1046.4039570576435
 20
115.28650490013334
 11
1046.8259656751479
 21
115.18714234635638
  0
LINE
  8
_1-0_
  6
CONTINUOUS
 62
    6
 10
1046.8259656751479
 20
115.18714234635638
 11
1049.6079316010346
 21
115.51002038491738
  0
LINE
  8
_1-0_
  6
CONTINUOUS
 62
    6
 10
1049.6079316010346
 20
115.51002038491738
 11
1050.5023028399494
 21
115.68397058022988
  0
LINE
  8
_1-0_
  6
CONTINUOUS
 62
    6
 10
1050.5023028399494
 20
115.68397058022988
 11
1051.6451036607898
 21
115.98194225414382
  0
LINE
  8
_1-0_
  6
CONTINUOUS
 62
    6
 10
1051.6451036607898
 20
115.98194225414382
 11
1053.8556073163008
 21
116.70227824030697
  0
LINE
  8
_1-0_
  6
CONTINUOUS
 62
    6
 10
1053.8556073163008
 20
116.70227824030697
 11
1053.6567894188133
 21
116.62781431868268
  0
LINE
  8
_1-0_
  6
CONTINUOUS
 62
    6
 10
1053.6567894188133
 20
116.62781431868268
 11
1055.8920370565879
 21
117.64612971125423
  0
LINE
  8
_1-0_
  6
CONTINUOUS
 62
    6
 10
1055.8920370565879
 20
117.64612971125423
 11
1056.6127055400127
 21
118.04358765885638
  0
LINE
  8
_1-0_
  6
CONTINUOUS
 62
    6
 10
1056.6127055400127
 20
118.04358765885638
 11
1057.9537056587837
 21
118.93783517785977
  0
LINE
  8
_1-0_
  6
CONTINUOUS
 62
    6
 10
1057.9537056587837
 20
118.93783517785977
 11
1059.2454652528504
 21
119.95614283793685
  0
LINE
  8
_1-0_
  6
CONTINUOUS
 62
    6
 10
1059.2454652528504
 20
119.95614283793685
 11
1060.83514239337
 21
121.69479421667148
  0
LINE
  8
_1-0_
  6
CONTINUOUS
 62
    6
 10
1060.83514239337
 20
121.69479421667148
 11
1061.33187783731
 21
122.31575991656328
  0
LINE
  8
_1-0_
  6
CONTINUOUS
 62
    6
 10
1061.33187783731
 20
122.31575991656328
 11
1062.2261253563133
 21
123.68197569975983
  0
LINE
  8
_1-0_
  6
CONTINUOUS
 62
    6
 10
1062.2261253563133
 20
123.68197569975983
 11
1061.9279603700379
 21
123.2100538305334
  0
LINE
  8
_1-0_
  6
CONTINUOUS
 62
    6
 10
1061.9279603700379
 20
123.2100538305334
 11
1063.0457697687923
 21
125.1225703471416
  0
LINE
  8
_1-0_
  6
CONTINUOUS
 62
    6
 10
1063.0457697687923
 20
125.1225703471416
 11
1062.9462989600929
 21
124.94882119668496
  0
LINE
  8
_1-0_
  6
CONTINUOUS
 62
    6
 10
1062.9462989600929
 20
124.94882119668496
 11
1063.989628972234
 21
127.23385063377592
  0
LINE
  8
_1-0_
  6
CONTINUOUS
 62
    6
 10
1063.989628972234
 20
127.23385063377592
 11
1064.2877939585094
 21
128.05359556868268
  0
LINE
  8
_1-0_
  6
CONTINUOUS
 62
    6
 10
1064.2877939585094
 20
128.05359556868268
 11
1064.8341410868877
 21
129.76746430268156
  0
LINE
  8
_1-0_
  6
CONTINUOUS
 62
    6
 10
1064.8341410868877
 20
129.76746430268156
 11
1065.3060088286529
 21
131.58065692798516
  0
LINE
  8
_1-0_
  6
CONTINUOUS
 62
    6
 10
1065.3060088286529
 20
131.58065692798516
 11
1065.3060088286529
 21
132.10230646906672
  0
LINE
  8
_1-0_
  6
CONTINUOUS
 62
    6
 10
1065.3060088286529
 20
132.10230646906672
 11
1065.2315294420398
 21
132.25131163725985
  0
LINE
  8
_1-0_
  6
CONTINUOUS
 62
    6
 10
1065.2315294420398
 20
132.25131163725985
 11
1064.9830998601142
 21
132.49972575419662
  0
LINE
  8
_1-0_
  6
CONTINUOUS
 62
    6
 10
1064.9830998601142
 20
132.49972575419662
 11
1064.6104554872254
 21
132.67367594950912
  0
LINE
  8
_1-0_
  6
CONTINUOUS
 62
    6
 10
1064.6104554872254
 20
132.67367594950912
 11
1064.039116936761
 21
132.62390961518156
  0
LINE
  8
_1-0_
  6
CONTINUOUS
 62
    6
 10
1064.039116936761
 20
132.62390961518156
 11
1063.8902818834461
 21
132.54932197364604
  0
LINE
  8
_1-0_
  6
CONTINUOUS
 62
    6
 10
1063.8902818834461
 20
132.54932197364604
 11
1063.6668437236065
 21
132.32593020877323
  0
LINE
  8
_1-0_
  6
CONTINUOUS
 62
    6
 10
1063.6668437236065
 20
132.32593020877323
 11
1063.5175137906463
 21
131.97802981814823
  0
LINE
  8
_1-0_
  6
CONTINUOUS
 62
    6
 10
1045.3358830632392
 20
128.10323818309888
 11
1047.5466341585727
 21
127.10962811031855
  0
LINE
  8
_1-0_
  6
CONTINUOUS
 62
    6
 10
1047.5466341585727
 20
127.10962811031855
 11
1048.2914280247044
 21
126.71228615013334
  0
LINE
  8
_1-0_
  6
CONTINUOUS
 62
    6
 10
1048.2914280247044
 20
126.71228615013334
 11
1049.8316172006969
 21
125.79330238136087
  0
LINE
  8
_1-0_
  6
CONTINUOUS
 62
    6
 10
1049.8316172006969
 20
125.79330238136087
 11
1051.3965503589527
 21
124.72510466704499
  0
LINE
  8
_1-0_
  6
CONTINUOUS
 62
    6
 10
1051.3965503589527
 20
124.72510466704499
 11
1052.0173768739442
 21
124.52645688443567
  0
LINE
  8
_1-0_
  6
CONTINUOUS
 62
    6
 10
1052.0173768739442
 20
124.52645688443567
 11
1052.2160710515204
 21
124.52645688443567
  0
LINE
  8
_1-0_
  6
CONTINUOUS
 62
    6
 10
1052.2160710515204
 20
124.52645688443567
 11
1052.563847722234
 21
124.6506407454207
  0
LINE
  8
_1-0_
  6
CONTINUOUS
 62
    6
 10
1052.563847722234
 20
124.6506407454207
 11
1052.8867566907729
 21
124.92391483203789
  0
LINE
  8
_1-0_
  6
CONTINUOUS
 62
    6
 10
1052.8867566907729
 20
124.92391483203789
 11
1053.0855745882602
 21
125.5696709091599
  0
LINE
  8
_1-0_
  6
CONTINUOUS
 62
    6
 10
1053.0855745882602
 20
125.5696709091599
 11
1053.0605831661742
 21
125.76831869176914
  0
LINE
  8
_1-0_
  6
CONTINUOUS
 62
    6
 10
1053.0605831661742
 20
125.76831869176914
 11
1052.911748112859
 21
126.14095533216322
  0
LINE
  8
_1-0_
  6
CONTINUOUS
 62
    6
 10
1052.911748112859
 20
126.14095533216322
 11
1052.5887154244087
 21
126.51363836752402
  0
LINE
  8
_1-0_
  6
CONTINUOUS
 62
    6
 10
1052.5887154244087
 20
126.51363836752402
 11
1050.5023028399494
 21
127.78036014453789
  0
LINE
  8
_1-0_
  6
CONTINUOUS
 62
    6
 10
1050.5023028399494
 20
127.78036014453789
 11
1049.4838405299831
 21
128.30197102314719
  0
LINE
  8
_1-0_
  6
CONTINUOUS
 62
    6
 10
1049.4838405299831
 20
128.30197102314719
 11
1048.1922046558277
 21
128.87325544615052
  0
LINE
  8
_1-0_
  6
CONTINUOUS
 62
    6
 10
1048.1922046558277
 20
128.87325544615052
 11
1047.7699485985008
 21
129.04708965404615
  0
LINE
  8
_1-0_
  6
CONTINUOUS
 62
    6
 10
1047.7699485985008
 20
129.04708965404615
 11
1045.9319655959671
 21
129.69296171858502
  0
LINE
  8
_1-0_
  6
CONTINUOUS
 62
    6
 10
1045.9319655959671
 20
129.69296171858502
 11
1045.3358830632392
 21
129.61841273952174
  0
LINE
  8
_1-0_
  6
CONTINUOUS
 62
    6
 10
1045.3358830632392
 20
129.61841273952174
 11
1044.9383709881758
 21
129.19625720462284
  0
LINE
  8
_1-0_
  6
CONTINUOUS
 62
    6
 10
1044.9383709881758
 20
129.19625720462284
 11
1044.9383709881758
 21
128.57520644729206
  0
LINE
  8
_1-0_
  6
CONTINUOUS
 62
    6
 10
1044.9383709881758
 20
128.57520644729206
 11
1045.3358830632392
 21
128.10323818309888
  0
LINE
  8
_1-0_
  6
CONTINUOUS
 62
    6
 10
1047.0247835726352
 20
134.16391321130703
 11
1049.6577907252956
 21
133.04615020751953
  0
LINE
  8
_1-0_
  6
CONTINUOUS
 62
    6
 10
1049.6577907252956
 20
133.04615020751953
 11
1050.5023028399494
 21
132.62390961518156
  0
LINE
  8
_1-0_
  6
CONTINUOUS
 62
    6
 10
1050.5023028399494
 20
132.62390961518156
 11
1052.1662119272594
 21
131.72970849114492
  0
LINE
  8
_1-0_
  6
CONTINUOUS
 62
    6
 10
1052.1662119272594
 20
131.72970849114492
 11
1053.7807567699538
 21
130.78584928770326
  0
LINE
  8
_1-0_
  6
CONTINUOUS
 62
    6
 10
1053.7807567699538
 20
130.78584928770326
 11
1054.4019544446792
 21
130.58704685520482
  0
LINE
  8
_1-0_
  6
CONTINUOUS
 62
    6
 10
1054.4019544446792
 20
130.58704685520482
 11
1054.6005249023437
 21
130.58704685520482
  0
LINE
  8
_1-0_
  6
CONTINUOUS
 62
    6
 10
1054.6005249023437
 20
130.58704685520482
 11
1054.9481778531463
 21
130.71130804113437
  0
LINE
  8
_1-0_
  6
CONTINUOUS
 62
    6
 10
1054.9481778531463
 20
130.71130804113437
 11
1055.2713342615077
 21
130.98446614033469
  0
LINE
  8
_1-0_
  6
CONTINUOUS
 62
    6
 10
1055.2713342615077
 20
130.98446614033469
 11
1055.4700284390838
 21
131.67994215681745
  0
LINE
  8
_1-0_
  6
CONTINUOUS
 62
    6
 10
1055.4700284390838
 20
131.67994215681745
 11
1055.4452844568202
 21
131.87874458931589
  0
LINE
  8
_1-0_
  6
CONTINUOUS
 62
    6
 10
1055.4452844568202
 20
131.87874458931589
 11
1055.2962019636825
 21
132.25131163725985
  0
LINE
  8
_1-0_
  6
CONTINUOUS
 62
    6
 10
1055.2962019636825
 20
132.25131163725985
 11
1054.9730455553211
 21
132.57418967582083
  0
LINE
  8
_1-0_
  6
CONTINUOUS
 62
    6
 10
1054.9730455553211
 20
132.57418967582083
 11
1053.3088890281883
 21
133.5429320464263
  0
LINE
  8
_1-0_
  6
CONTINUOUS
 62
    6
 10
1053.3088890281883
 20
133.5429320464263
 11
1052.7125590556377
 21
133.84103517274596
  0
LINE
  8
_1-0_
  6
CONTINUOUS
 62
    6
 10
1052.7125590556377
 20
133.84103517274596
 11
1051.4459146035686
 21
134.41232732824375
  0
LINE
  8
_1-0_
  6
CONTINUOUS
 62
    6
 10
1051.4459146035686
 20
134.41232732824375
 11
1051.570376834354
 21
134.36256099391628
  0
LINE
  8
_1-0_
  6
CONTINUOUS
 62
    6
 10
1051.570376834354
 20
134.36256099391628
 11
1050.1296584670608
 21
134.93380675444735
  0
LINE
  8
_1-0_
  6
CONTINUOUS
 62
    6
 10
1050.1296584670608
 20
134.93380675444735
 11
1049.6330467430321
 21
135.10775694975985
  0
LINE
  8
_1-0_
  6
CONTINUOUS
 62
    6
 10
1049.6330467430321
 20
135.10775694975985
 11
1048.5897167308913
 21
135.43063498832083
  0
LINE
  8
_1-0_
  6
CONTINUOUS
 62
    6
 10
1048.5897167308913
 20
135.43063498832083
 11
1047.5215190165752
 21
135.75363674679318
  0
LINE
  8
_1-0_
  6
CONTINUOUS
 62
    6
 10
1047.5215190165752
 20
135.75363674679318
 11
1046.9254364838471
 21
135.67895631532409
  0
LINE
  8
_1-0_
  6
CONTINUOUS
 62
    6
 10
1046.9254364838471
 20
135.67895631532409
 11
1046.5279244087837
 21
135.25680851291966
  0
LINE
  8
_1-0_
  6
CONTINUOUS
 62
    6
 10
1046.5279244087837
 20
135.25680851291966
 11
1046.5033041464317
 21
134.73518990181589
  0
LINE
  8
_1-0_
  6
CONTINUOUS
 62
    6
 10
1046.5033041464317
 20
134.73518990181589
 11
1046.5527921109588
 21
134.58606101371146
  0
LINE
  8
_1-0_
  6
CONTINUOUS
 62
    6
 10
1046.5527921109588
 20
134.58606101371146
 11
1046.72661858636
 21
134.33786340661953
  0
LINE
  8
_1-0_
  6
CONTINUOUS
 62
    6
 10
1046.72661858636
 20
134.33786340661953
 11
1047.0247835726352
 21
134.16391321130703
  0
LINE
  8
_1-0_
  6
CONTINUOUS
 62
    6
 10
1087.4945563239021
 20
130.58704685520482
 11
1075.9694279851142
 21
130.58704685520482
  0
LINE
  8
_1-0_
  6
CONTINUOUS
 62
    6
 10
1075.9694279851142
 20
130.58704685520482
 11
1075.4228334169129
 21
130.46298671413112
  0
LINE
  8
_1-0_
  6
CONTINUOUS
 62
    6
 10
1075.4228334169129
 20
130.46298671413112
 11
1075.2988660657729
 21
130.3885227925069
  0
LINE
  8
_1-0_
  6
CONTINUOUS
 62
    6
 10
1075.2988660657729
 20
130.3885227925069
 11
1075.1249158704604
 21
130.1399849556588
  0
LINE
  8
_1-0_
  6
CONTINUOUS
 62
    6
 10
1075.1249158704604
 20
130.1399849556588
 11
1075.0750567461994
 21
129.79236293483424
  0
LINE
  8
_1-0_
  6
CONTINUOUS
 62
    6
 10
1075.0750567461994
 20
129.79236293483424
 11
1075.1991478172508
 21
129.29541871354388
  0
LINE
  8
_1-0_
  6
CONTINUOUS
 62
    6
 10
1075.1991478172508
 20
129.29541871354388
 11
1075.2988660657729
 21
129.19625720462284
  0
LINE
  8
_1-0_
  6
CONTINUOUS
 62
    6
 10
1075.2988660657729
 20
129.19625720462284
 11
1075.5720396299621
 21
129.04708965404615
  0
LINE
  8
_1-0_
  6
CONTINUOUS
 62
    6
 10
1075.5720396299621
 20
129.04708965404615
 11
1075.9694279851142
 21
128.99744703962995
  0
LINE
  8
_1-0_
  6
CONTINUOUS
 62
    6
 10
1075.9694279851142
 20
128.99744703962995
 11
1086.7990029824748
 21
128.99744703962995
  0
LINE
  8
_1-0_
  6
CONTINUOUS
 62
    6
 10
1086.7990029824748
 20
128.99744703962995
 11
1087.3952092351142
 21
128.8483954764701
  0
LINE
  8
_1-0_
  6
CONTINUOUS
 62
    6
 10
1087.3952092351142
 20
128.8483954764701
 11
1087.5440442884292
 21
128.74903292269323
  0
LINE
  8
_1-0_
  6
CONTINUOUS
 62
    6
 10
1087.5440442884292
 20
128.74903292269323
 11
1087.742738466005
 21
128.42623994157123
  0
LINE
  8
_1-0_
  6
CONTINUOUS
 62
    6
 10
1087.742738466005
 20
128.42623994157123
 11
1087.7927213101775
 21
128.00387562932195
  0
LINE
  8
_1-0_
  6
CONTINUOUS
 62
    6
 10
1087.7927213101775
 20
128.00387562932195
 11
1087.7927213101775
 21
124.42713299313105
  0
LINE
  8
_1-0_
  6
CONTINUOUS
 62
    6
 10
1087.7927213101775
 20
124.42713299313105
 11
1076.4660397091429
 21
124.42713299313105
  0
LINE
  8
_1-0_
  6
CONTINUOUS
 62
    6
 10
1076.4660397091429
 20
124.42713299313105
 11
1075.9196925807644
 21
124.3029491321461
  0
LINE
  8
_1-0_
  6
CONTINUOUS
 62
    6
 10
1075.9196925807644
 20
124.3029491321461
 11
1075.7953540698902
 21
124.22836149061048
  0
LINE
  8
_1-0_
  6
CONTINUOUS
 62
    6
 10
1075.7953540698902
 20
124.22836149061048
 11
1075.6217750343117
 21
123.98007109358502
  0
LINE
  8
_1-0_
  6
CONTINUOUS
 62
    6
 10
1075.6217750343117
 20
123.98007109358502
 11
1075.5720396299621
 21
123.63220936543236
  0
LINE
  8
_1-0_
  6
CONTINUOUS
 62
    6
 10
1075.5720396299621
 20
123.63220936543236
 11
1075.6961307010135
 21
123.13546618899785
  0
LINE
  8
_1-0_
  6
CONTINUOUS
 62
    6
 10
1075.6961307010135
 20
123.13546618899785
 11
1075.7953540698902
 21
123.03621962263776
  0
LINE
  8
_1-0_
  6
CONTINUOUS
 62
    6
 10
1075.7953540698902
 20
123.03621962263776
 11
1076.0686513539908
 21
122.8871757919724
  0
LINE
  8
_1-0_
  6
CONTINUOUS
 62
    6
 10
1076.0686513539908
 20
122.8871757919724
 11
1076.4660397091429
 21
122.83740945764492
  0
LINE
  8
_1-0_
  6
CONTINUOUS
 62
    6
 10
1076.4660397091429
 20
122.83740945764492
 11
1087.7927213101775
 21
122.83740945764492
  0
LINE
  8
_1-0_
  6
CONTINUOUS
 62
    6
 10
1087.7927213101775
 20
122.83740945764492
 11
1087.7927213101775
 21
118.26709541114603
  0
LINE
  8
_1-0_
  6
CONTINUOUS
 62
    6
 10
1087.7927213101775
 20
118.26709541114603
 11
1087.6436388170398
 21
117.67098968093464
  0
LINE
  8
_1-0_
  6
CONTINUOUS
 62
    6
 10
1087.6436388170398
 20
117.67098968093464
 11
1087.5191765862544
 21
117.52193811777474
  0
LINE
  8
_1-0_
  6
CONTINUOUS
 62
    6
 10
1087.5191765862544
 20
117.52193811777474
 11
1087.1717710752746
 21
117.32325167269323
  0
LINE
  8
_1-0_
  6
CONTINUOUS
 62
    6
 10
1087.1717710752746
 20
117.32325167269323
 11
1086.6996558936867
 21
117.27352400083802
  0
LINE
  8
_1-0_
  6
CONTINUOUS
 62
    6
 10
1086.6996558936867
 20
117.27352400083802
 11
1075.9694279851142
 21
117.27352400083802
  0
LINE
  8
_1-0_
  6
CONTINUOUS
 62
    6
 10
1075.9694279851142
 20
117.27352400083802
 11
1075.4228334169129
 21
117.14930147738073
  0
LINE
  8
_1-0_
  6
CONTINUOUS
 62
    6
 10
1075.4228334169129
 20
117.14930147738073
 11
1075.2988660657729
 21
117.07483755575645
  0
LINE
  8
_1-0_
  6
CONTINUOUS
 62
    6
 10
1075.2988660657729
 20
117.07483755575645
 11
1075.1249158704604
 21
116.82650849625873
  0
LINE
  8
_1-0_
  6
CONTINUOUS
 62
    6
 10
1075.1249158704604
 20
116.82650849625873
 11
1075.0750567461994
 21
116.47872409305059
  0
LINE
  8
_1-0_
  6
CONTINUOUS
 62
    6
 10
1075.0750567461994
 20
116.47872409305059
 11
1075.1991478172508
 21
115.98194225414382
  0
LINE
  8
_1-0_
  6
CONTINUOUS
 62
    6
 10
1075.1991478172508
 20
115.98194225414382
 11
1075.2988660657729
 21
115.88265702531146
  0
LINE
  8
_1-0_
  6
CONTINUOUS
 62
    6
 10
1075.2988660657729
 20
115.88265702531146
 11
1075.5720396299621
 21
115.73352813720703
  0
LINE
  8
_1-0_
  6
CONTINUOUS
 62
    6
 10
1075.5720396299621
 20
115.73352813720703
 11
1075.9694279851142
 21
115.68397058022988
  0
LINE
  8
_1-0_
  6
CONTINUOUS
 62
    6
 10
1075.9694279851142
 20
115.68397058022988
 11
1087.4945563239021
 21
115.68397058022988
  0
LINE
  8
_1-0_
  6
CONTINUOUS
 62
    6
 10
1087.4945563239021
 20
115.68397058022988
 11
1088.6867213893581
 21
115.90747833251953
  0
LINE
  8
_1-0_
  6
CONTINUOUS
 62
    6
 10
1088.6867213893581
 20
115.90747833251953
 11
1089.0593657622467
 21
116.18062869922539
  0
LINE
  8
_1-0_
  6
CONTINUOUS
 62
    6
 10
1089.0593657622467
 20
116.18062869922539
 11
1089.3820272909629
 21
116.62781431868268
  0
LINE
  8
_1-0_
  6
CONTINUOUS
 62
    6
 10
1089.3820272909629
 20
116.62781431868268
 11
1089.45687783731
 21
116.80160213161159
  0
LINE
  8
_1-0_
  6
CONTINUOUS
 62
    6
 10
1089.45687783731
 20
116.80160213161159
 11
1089.5562249260981
 21
117.1990678117082
  0
LINE
  8
_1-0_
  6
CONTINUOUS
 62
    6
 10
1089.5562249260981
 20
117.1990678117082
 11
1089.5809689083617
 21
117.67098968093464
  0
LINE
  8
_1-0_
  6
CONTINUOUS
 62
    6
 10
1089.5809689083617
 20
117.67098968093464
 11
1089.5809689083617
 21
128.59998135953333
  0
LINE
  8
_1-0_
  6
CONTINUOUS
 62
    6
 10
1089.5809689083617
 20
128.59998135953333
 11
1089.3326630463471
 21
129.74264299547349
  0
LINE
  8
_1-0_
  6
CONTINUOUS
 62
    6
 10
1089.3326630463471
 20
129.74264299547349
 11
1089.0593657622467
 21
130.09034234124258
  0
LINE
  8
_1-0_
  6
CONTINUOUS
 62
    6
 10
1089.0593657622467
 20
130.09034234124258
 11
1088.5874980204815
 21
130.3885227925069
  0
LINE
  8
_1-0_
  6
CONTINUOUS
 62
    6
 10
1088.5874980204815
 20
130.3885227925069
 11
1088.4137952649917
 21
130.46298671413112
  0
LINE
  8
_1-0_
  6
CONTINUOUS
 62
    6
 10
1088.4137952649917
 20
130.46298671413112
 11
1087.9911680479308
 21
130.56225647797453
  0
LINE
  8
_1-0_
  6
CONTINUOUS
 62
    6
 10
1087.9911680479308
 20
130.56225647797453
 11
1087.4945563239021
 21
130.58704685520482
  0
LINE
  8
_1-0_
  6
CONTINUOUS
 62
    6
 10
1119.4196134000213
 20
132.17672399572422
 11
1118.6993160763304
 21
129.81710691709779
  0
LINE
  8
_1-0_
  6
CONTINUOUS
 62
    6
 10
1118.6993160763304
 20
129.81710691709779
 11
1118.4262662320525
 21
129.0968095934069
  0
LINE
  8
_1-0_
  6
CONTINUOUS
 62
    6
 10
1118.4262662320525
 20
129.0968095934069
 11
1117.8548039616767
 21
127.6810362532332
  0
LINE
  8
_1-0_
  6
CONTINUOUS
 62
    6
 10
1117.8548039616767
 20
127.6810362532332
 11
1118.0537455790752
 21
128.15296585495412
  0
LINE
  8
_1-0_
  6
CONTINUOUS
 62
    6
 10
1118.0537455790752
 20
128.15296585495412
 11
1117.2092334644215
 21
126.3892921241554
  0
LINE
  8
_1-0_
  6
CONTINUOUS
 62
    6
 10
1117.2092334644215
 20
126.3892921241554
 11
1117.2834654112121
 21
126.53833595482084
  0
LINE
  8
_1-0_
  6
CONTINUOUS
 62
    6
 10
1117.2834654112121
 20
126.53833595482084
 11
1116.2403828388935
 21
124.7996923085806
  0
LINE
  8
_1-0_
  6
CONTINUOUS
 62
    6
 10
1116.2403828388935
 20
124.7996923085806
 11
1115.89260616818
 21
124.25318279781855
  0
LINE
  8
_1-0_
  6
CONTINUOUS
 62
    6
 10
1115.89260616818
 20
124.25318279781855
 11
1115.0977057379646
 21
123.25961138751055
  0
LINE
  8
_1-0_
  6
CONTINUOUS
 62
    6
 10
1115.0977057379646
 20
123.25961138751055
 11
1114.2531936233108
 21
122.34066628121042
  0
LINE
  8
_1-0_
  6
CONTINUOUS
 62
    6
 10
1114.2531936233108
 20
122.34066628121042
 11
1112.4898137273017
 21
120.82553038725983
  0
LINE
  8
_1-0_
  6
CONTINUOUS
 62
    6
 10
1112.4898137273017
 20
120.82553038725983
 11
1111.8439957902237
 21
120.37830610533021
  0
LINE
  8
_1-0_
  6
CONTINUOUS
 62
    6
 10
1111.8439957902237
 20
120.37830610533021
 11
1110.4526416675465
 21
119.58358352248737
  0
LINE
  8
_1-0_
  6
CONTINUOUS
 62
    6
 10
1110.4526416675465
 20
119.58358352248737
 11
1110.9247568491344
 21
119.83199763942409
  0
LINE
  8
_1-0_
  6
CONTINUOUS
 62
    6
 10
1110.9247568491344
 20
119.83199763942409
 11
1108.9875504777237
 21
118.8880688435323
  0
LINE
  8
_1-0_
  6
CONTINUOUS
 62
    6
 10
1108.9875504777237
 20
118.8880688435323
 11
1109.161376953125
 21
118.96261782259558
  0
LINE
  8
_1-0_
  6
CONTINUOUS
 62
    6
 10
1109.161376953125
 20
118.96261782259558
 11
1106.82653478674
 21
118.16773285736907
  0
LINE
  8
_1-0_
  6
CONTINUOUS
 62
    6
 10
1106.82653478674
 20
118.16773285736907
 11
1106.006890374261
 21
117.94422510507943
  0
LINE
  8
_1-0_
  6
CONTINUOUS
 62
    6
 10
1106.006890374261
 20
117.94422510507943
 11
1104.2680070206925
 21
117.59652575931035
  0
LINE
  8
_1-0_
  6
CONTINUOUS
 62
    6
 10
1104.2680070206925
 20
117.59652575931035
 11
1102.4299002982475
 21
117.37289428710937
  0
LINE
  8
_1-0_
  6
CONTINUOUS
 62
    6
 10
1102.4299002982475
 20
117.37289428710937
 11
1101.8336940456081
 21
117.17420010953333
  0
LINE
  8
_1-0_
  6
CONTINUOUS
 62
    6
 10
1101.8336940456081
 20
117.17420010953333
 11
1101.6851064321158
 21
117.0501399684597
  0
LINE
  8
_1-0_
  6
CONTINUOUS
 62
    6
 10
1101.6851064321158
 20
117.0501399684597
 11
1101.5110325168919
 21
116.72713820998737
  0
LINE
  8
_1-0_
  6
CONTINUOUS
 62
    6
 10
1101.5110325168919
 20
116.72713820998737
 11
1101.4364294103675
 21
116.28003764796901
  0
LINE
  8
_1-0_
  6
CONTINUOUS
 62
    6
 10
1101.4364294103675
 20
116.28003764796901
 11
1101.6598675702071
 21
115.68397058022988
  0
LINE
  8
_1-0_
  6
CONTINUOUS
 62
    6
 10
1101.6598675702071
 20
115.68397058022988
 11
1101.7840823611698
 21
115.53488035459779
  0
LINE
  8
_1-0_
  6
CONTINUOUS
 62
    6
 10
1101.7840823611698
 20
115.53488035459779
 11
1102.1567267340583
 21
115.33614751454948
  0
LINE
  8
_1-0_
  6
CONTINUOUS
 62
    6
 10
1102.1567267340583
 20
115.33614751454948
 11
1102.628718195735
 21
115.28650490013334
  0
LINE
  8
_1-0_
  6
CONTINUOUS
 62
    6
 10
1102.628718195735
 20
115.28650490013334
 11
1105.6343697212837
 21
115.7832944715345
  0
LINE
  8
_1-0_
  6
CONTINUOUS
 62
    6
 10
1105.6343697212837
 20
115.7832944715345
 11
1106.5781052048142
 21
116.00680222382415
  0
LINE
  8
_1-0_
  6
CONTINUOUS
 62
    6
 10
1106.5781052048142
 20
116.00680222382415
 11
1108.3664765229096
 21
116.52832804499447
  0
LINE
  8
_1-0_
  6
CONTINUOUS
 62
    6
 10
1108.3664765229096
 20
116.52832804499447
 11
1107.7951379724452
 21
116.32968026238515
  0
LINE
  8
_1-0_
  6
CONTINUOUS
 62
    6
 10
1107.7951379724452
 20
116.32968026238515
 11
1110.0307567699538
 21
117.14930147738073
  0
LINE
  8
_1-0_
  6
CONTINUOUS
 62
    6
 10
1110.0307567699538
 20
117.14930147738073
 11
1109.9808976456925
 21
117.12460389008392
  0
LINE
  8
_1-0_
  6
CONTINUOUS
 62
    6
 10
1109.9808976456925
 20
117.12460389008392
 11
1112.0425662478885
 21
118.142911550161
  0
LINE
  8
_1-0_
  6
CONTINUOUS
 62
    6
 10
1112.0425662478885
 20
118.142911550161
 11
1112.9120697846283
 21
118.66456109124258
  0
LINE
  8
_1-0_
  6
CONTINUOUS
 62
    6
 10
1112.9120697846283
 20
118.66456109124258
 11
1113.8806729703338
 21
119.35999071275866
  0
LINE
  8
_1-0_
  6
CONTINUOUS
 62
    6
 10
1113.8806729703338
 20
119.35999071275866
 11
1114.2035819388725
 21
119.60840482969544
  0
LINE
  8
_1-0_
  6
CONTINUOUS
 62
    6
 10
1114.2035819388725
 20
119.60840482969544
 11
1115.3461353198902
 21
120.6516188544196
  0
LINE
  8
_1-0_
  6
CONTINUOUS
 62
    6
 10
1115.3461353198902
 20
120.6516188544196
 11
1116.8612093538852
 21
122.36548758841849
  0
LINE
  8
_1-0_
  6
CONTINUOUS
 62
    6
 10
1116.8612093538852
 20
122.36548758841849
 11
1117.3330770956504
 21
122.98646102080475
  0
LINE
  8
_1-0_
  6
CONTINUOUS
 62
    6
 10
1117.3330770956504
 20
122.98646102080475
 11
1118.1779603700379
 21
124.3029491321461
  0
LINE
  8
_1-0_
  6
CONTINUOUS
 62
    6
 10
1118.1779603700379
 20
124.3029491321461
 11
1117.904415646115
 21
123.85584083763334
  0
LINE
  8
_1-0_
  6
CONTINUOUS
 62
    6
 10
1117.904415646115
 20
123.85584083763334
 11
1118.9724896405196
 21
125.69385477014492
  0
LINE
  8
_1-0_
  6
CONTINUOUS
 62
    6
 10
1118.9724896405196
 20
125.69385477014492
 11
1118.8732662716429
 21
125.52002829474375
  0
LINE
  8
_1-0_
  6
CONTINUOUS
 62
    6
 10
1118.8732662716429
 20
125.52002829474375
 11
1119.8668608794342
 21
127.70578023549675
  0
LINE
  8
_1-0_
  6
CONTINUOUS
 62
    6
 10
1119.8668608794342
 20
127.70578023549675
 11
1120.1649021457981
 21
128.47579749854839
  0
LINE
  8
_1-0_
  6
CONTINUOUS
 62
    6
 10
1120.1649021457981
 20
128.47579749854839
 11
1120.6616375897383
 21
130.09034234124258
  0
LINE
  8
_1-0_
  6
CONTINUOUS
 62
    6
 10
1120.6616375897383
 20
130.09034234124258
 11
1121.1088850691513
 21
131.77938203553893
  0
LINE
  8
_1-0_
  6
CONTINUOUS
 62
    6
 10
1121.1088850691513
 20
131.77938203553893
 11
1121.1088850691513
 21
132.35067419103672
  0
LINE
  8
_1-0_
  6
CONTINUOUS
 62
    6
 10
1121.1088850691513
 20
132.35067419103672
 11
1121.0341582427154
 21
132.49972575419662
  0
LINE
  8
_1-0_
  6
CONTINUOUS
 62
    6
 10
1121.0341582427154
 20
132.49972575419662
 11
1120.7857286607898
 21
132.72324123898068
  0
LINE
  8
_1-0_
  6
CONTINUOUS
 62
    6
 10
1120.7857286607898
 20
132.72324123898068
 11
1120.4132080078125
 21
132.87232373211836
  0
LINE
  8
_1-0_
  6
CONTINUOUS
 62
    6
 10
1120.4132080078125
 20
132.87232373211836
 11
1119.891728581609
 21
132.8226037927576
  0
LINE
  8
_1-0_
  6
CONTINUOUS
 62
    6
 10
1119.891728581609
 20
132.8226037927576
 11
1119.7672663508235
 21
132.74813987113333
  0
LINE
  8
_1-0_
  6
CONTINUOUS
 62
    6
 10
1119.7672663508235
 20
132.74813987113333
 11
1119.5685721732475
 21
132.52454706140469
  0
LINE
  8
_1-0_
  6
CONTINUOUS
 62
    6
 10
1119.5685721732475
 20
132.52454706140469
 11
1119.4196134000213
 21
132.17672399572422
  0
LINE
  8
_1-0_
  6
CONTINUOUS
 62
    6
 10
1101.4364294103675
 20
133.36910557102513
 11
1103.9699657543288
 21
132.02779615247573
  0
LINE
  8
_1-0_
  6
CONTINUOUS
 62
    6
 10
1103.9699657543288
 20
132.02779615247573
 11
1104.8146015888935
 21
131.50611568141628
  0
LINE
  8
_1-0_
  6
CONTINUOUS
 62
    6
 10
1104.8146015888935
 20
131.50611568141628
 11
1106.503625818201
 21
130.36360869536531
  0
LINE
  8
_1-0_
  6
CONTINUOUS
 62
    6
 10
1106.503625818201
 20
130.36360869536531
 11
1108.1926500475086
 21
129.0968095934069
  0
LINE
  8
_1-0_
  6
CONTINUOUS
 62
    6
 10
1108.1926500475086
 20
129.0968095934069
 11
1108.9130710911106
 21
128.74903292269323
  0
LINE
  8
_1-0_
  6
CONTINUOUS
 62
    6
 10
1108.9130710911106
 20
128.74903292269323
 11
1109.136385531039
 21
128.72421161548516
  0
LINE
  8
_1-0_
  6
CONTINUOUS
 62
    6
 10
1109.136385531039
 20
128.72421161548516
 11
1109.5836330104519
 21
128.8483954764701
  0
LINE
  8
_1-0_
  6
CONTINUOUS
 62
    6
 10
1109.5836330104519
 20
128.8483954764701
 11
1109.9808976456925
 21
129.19625720462284
  0
LINE
  8
_1-0_
  6
CONTINUOUS
 62
    6
 10
1109.9808976456925
 20
129.19625720462284
 11
1110.2293272276183
 21
129.84200554925039
  0
LINE
  8
_1-0_
  6
CONTINUOUS
 62
    6
 10
1110.2293272276183
 20
129.84200554925039
 11
1110.2045832453548
 21
130.0655210340345
  0
LINE
  8
_1-0_
  6
CONTINUOUS
 62
    6
 10
1110.2045832453548
 20
130.0655210340345
 11
1110.0307567699538
 21
130.48768430142786
  0
LINE
  8
_1-0_
  6
CONTINUOUS
 62
    6
 10
1110.0307567699538
 20
130.48768430142786
 11
1109.6831038191513
 21
130.88513451653554
  0
LINE
  8
_1-0_
  6
CONTINUOUS
 62
    6
 10
1109.6831038191513
 20
130.88513451653554
 11
1108.0933029587204
 21
132.07740783691406
  0
LINE
  8
_1-0_
  6
CONTINUOUS
 62
    6
 10
1108.0933029587204
 20
132.07740783691406
 11
1107.5218406883446
 21
132.44995941986906
  0
LINE
  8
_1-0_
  6
CONTINUOUS
 62
    6
 10
1107.5218406883446
 20
132.44995941986906
 11
1106.4044024493244
 21
133.12056773417709
  0
LINE
  8
_1-0_
  6
CONTINUOUS
 62
    6
 10
1106.4044024493244
 20
133.12056773417709
 11
1104.9634366422088
 21
133.89063139219544
  0
LINE
  8
_1-0_
  6
CONTINUOUS
 62
    6
 10
1104.9634366422088
 20
133.89063139219544
 11
1104.4669486380913
 21
134.11414687697956
  0
LINE
  8
_1-0_
  6
CONTINUOUS
 62
    6
 10
1104.4669486380913
 20
134.11414687697956
 11
1103.4237423458617
 21
134.61109883076438
  0
LINE
  8
_1-0_
  6
CONTINUOUS
 62
    6
 10
1103.4237423458617
 20
134.61109883076438
 11
1102.3308006492821
 21
135.05806794037687
  0
LINE
  8
_1-0_
  6
CONTINUOUS
 62
    6
 10
1102.3308006492821
 20
135.05806794037687
 11
1101.7840823611698
 21
135.13257825696792
  0
LINE
  8
_1-0_
  6
CONTINUOUS
 62
    6
 10
1101.7840823611698
 20
135.13257825696792
 11
1101.6102558857685
 21
135.08288924758503
  0
LINE
  8
_1-0_
  6
CONTINUOUS
 62
    6
 10
1101.6102558857685
 20
135.08288924758503
 11
1101.3123383393158
 21
134.88424146497573
  0
LINE
  8
_1-0_
  6
CONTINUOUS
 62
    6
 10
1101.3123383393158
 20
134.88424146497573
 11
1101.0390410552154
 21
134.56136342641472
  0
LINE
  8
_1-0_
  6
CONTINUOUS
 62
    6
 10
1101.0390410552154
 20
134.56136342641472
 11
1101.0142970729519
 21
134.01486164814719
  0
LINE
  8
_1-0_
  6
CONTINUOUS
 62
    6
 10
1101.0142970729519
 20
134.01486164814719
 11
1101.0390410552154
 21
133.86593380489865
  0
LINE
  8
_1-0_
  6
CONTINUOUS
 62
    6
 10
1101.0390410552154
 20
133.86593380489865
 11
1101.1881235483531
 21
133.59265198578703
  0
LINE
  8
_1-0_
  6
CONTINUOUS
 62
    6
 10
1101.1881235483531
 20
133.59265198578703
 11
1101.4364294103675
 21
133.36910557102513
  0
LINE
  8
_1-0_
  6
CONTINUOUS
 62
    6
 10
1141.309995908995
 20
136.05160068821263
 11
1141.309995908995
 21
133.46846812480209
  0
LINE
  8
_1-0_
  6
CONTINUOUS
 62
    6
 10
1141.309995908995
 20
133.46846812480209
 11
1138.6276245117187
 21
133.46846812480209
  0
LINE
  8
_1-0_
  6
CONTINUOUS
 62
    6
 10
1138.6276245117187
 20
133.46846812480209
 11
1138.9257894979942
 21
134.38741323110222
  0
LINE
  8
_1-0_
  6
CONTINUOUS
 62
    6
 10
1138.9257894979942
 20
134.38741323110222
 11
1139.0248891469596
 21
134.95882910651133
  0
LINE
  8
_1-0_
  6
CONTINUOUS
 62
    6
 10
1139.0248891469596
 20
134.95882910651133
 11
1138.9257894979942
 21
135.50522262985646
  0
LINE
  8
_1-0_
  6
CONTINUOUS
 62
    6
 10
1138.9257894979942
 20
135.50522262985646
 11
1138.8263186892948
 21
135.62928277093008
  0
LINE
  8
_1-0_
  6
CONTINUOUS
 62
    6
 10
1138.8263186892948
 20
135.62928277093008
 11
1138.5776416675465
 21
135.80331029118719
  0
LINE
  8
_1-0_
  6
CONTINUOUS
 62
    6
 10
1138.5776416675465
 20
135.80331029118719
 11
1138.2299887167442
 21
135.85290651063659
  0
LINE
  8
_1-0_
  6
CONTINUOUS
 62
    6
 10
1138.2299887167442
 20
135.85290651063659
 11
1137.8077326594173
 21
135.77845805400131
  0
LINE
  8
_1-0_
  6
CONTINUOUS
 62
    6
 10
1137.8077326594173
 20
135.77845805400131
 11
1137.5344353753169
 21
135.55494256921719
  0
LINE
  8
_1-0_
  6
CONTINUOUS
 62
    6
 10
1137.5344353753169
 20
135.55494256921719
 11
1137.3606088999156
 21
134.98352669380807
  0
LINE
  8
_1-0_
  6
CONTINUOUS
 62
    6
 10
1137.3606088999156
 20
134.98352669380807
 11
1137.2365178288642
 21
134.46187715272643
  0
LINE
  8
_1-0_
  6
CONTINUOUS
 62
    6
 10
1137.2365178288642
 20
134.46187715272643
 11
1136.9384765625
 21
133.19520177067938
  0
LINE
  8
_1-0_
  6
CONTINUOUS
 62
    6
 10
1136.9384765625
 20
133.19520177067938
 11
1136.44174111856
 21
131.58065692798516
  0
LINE
  8
_1-0_
  6
CONTINUOUS
 62
    6
 10
1136.44174111856
 20
131.58065692798516
 11
1135.9698733767948
 21
130.46298671413112
  0
LINE
  8
_1-0_
  6
CONTINUOUS
 62
    6
 10
1135.9698733767948
 20
130.46298671413112
 11
1135.5474935995567
 21
129.69296171858502
  0
LINE
  8
_1-0_
  6
CONTINUOUS
 62
    6
 10
1135.5474935995567
 20
129.69296171858502
 11
1135.2494523331925
 21
129.22095479191961
  0
LINE
  8
_1-0_
  6
CONTINUOUS
 62
    6
 10
1135.2494523331925
 20
129.22095479191961
 11
1135.1499815244933
 21
128.7987992570207
  0
LINE
  8
_1-0_
  6
CONTINUOUS
 62
    6
 10
1135.1499815244933
 20
128.7987992570207
 11
1135.2993114574538
 21
128.35156724259662
  0
LINE
  8
_1-0_
  6
CONTINUOUS
 62
    6
 10
1135.2993114574538
 20
128.35156724259662
 11
1135.7464352169554
 21
128.20264713184258
  0
LINE
  8
_1-0_
  6
CONTINUOUS
 62
    6
 10
1135.7464352169554
 20
128.20264713184258
 11
1136.1436998521961
 21
128.30197102314719
  0
LINE
  8
_1-0_
  6
CONTINUOUS
 62
    6
 10
1136.1436998521961
 20
128.30197102314719
 11
1136.5409644874367
 21
128.59998135953333
  0
LINE
  8
_1-0_
  6
CONTINUOUS
 62
    6
 10
1136.5409644874367
 20
128.59998135953333
 11
1137.0874353357265
 21
129.46936890885638
  0
LINE
  8
_1-0_
  6
CONTINUOUS
 62
    6
 10
1137.0874353357265
 20
129.46936890885638
 11
1137.5344353753169
 21
130.28903651881862
  0
LINE
  8
_1-0_
  6
CONTINUOUS
 62
    6
 10
1137.5344353753169
 20
130.28903651881862
 11
1137.9570625923775
 21
131.28260019663216
  0
LINE
  8
_1-0_
  6
CONTINUOUS
 62
    6
 10
1137.9570625923775
 20
131.28260019663216
 11
1138.2299887167442
 21
132.07740783691406
  0
LINE
  8
_1-0_
  6
CONTINUOUS
 62
    6
 10
1138.2299887167442
 20
132.07740783691406
 11
1141.309995908995
 21
132.07740783691406
  0
LINE
  8
_1-0_
  6
CONTINUOUS
 62
    6
 10
1141.309995908995
 20
132.07740783691406
 11
1141.309995908995
 21
127.40772350414382
  0
LINE
  8
_1-0_
  6
CONTINUOUS
 62
    6
 10
1141.309995908995
 20
127.40772350414382
 11
1135.7464352169554
 21
127.40772350414382
  0
LINE
  8
_1-0_
  6
CONTINUOUS
 62
    6
 10
1135.7464352169554
 20
127.40772350414382
 11
1135.274196315456
 21
127.30843827531146
  0
LINE
  8
_1-0_
  6
CONTINUOUS
 62
    6
 10
1135.274196315456
 20
127.30843827531146
 11
1135.1499815244933
 21
127.23385063377592
  0
LINE
  8
_1-0_
  6
CONTINUOUS
 62
    6
 10
1135.1499815244933
 20
127.23385063377592
 11
1135.0010227512669
 21
127.01026555654167
  0
LINE
  8
_1-0_
  6
CONTINUOUS
 62
    6
 10
1135.0010227512669
 20
127.01026555654167
 11
1134.9514110668288
 21
126.71228615013334
  0
LINE
  8
_1-0_
  6
CONTINUOUS
 62
    6
 10
1134.9514110668288
 20
126.71228615013334
 11
1135.0753784179687
 21
126.29013061523437
  0
LINE
  8
_1-0_
  6
CONTINUOUS
 62
    6
 10
1135.0753784179687
 20
126.29013061523437
 11
1135.1499815244933
 21
126.19064434154616
  0
LINE
  8
_1-0_
  6
CONTINUOUS
 62
    6
 10
1135.1499815244933
 20
126.19064434154616
 11
1135.3985348263304
 21
126.06653780550573
  0
LINE
  8
_1-0_
  6
CONTINUOUS
 62
    6
 10
1135.3985348263304
 20
126.06653780550573
 11
1135.7464352169554
 21
126.01685652861725
  0
LINE
  8
_1-0_
  6
CONTINUOUS
 62
    6
 10
1135.7464352169554
 20
126.01685652861725
 11
1141.309995908995
 21
126.01685652861725
  0
LINE
  8
_1-0_
  6
CONTINUOUS
 62
    6
 10
1141.309995908995
 20
126.01685652861725
 11
1140.5152191986908
 21
124.35266907150684
  0
LINE
  8
_1-0_
  6
CONTINUOUS
 62
    6
 10
1140.5152191986908
 20
124.35266907150684
 11
1140.1924339500633
 21
123.80612089827252
  0
LINE
  8
_1-0_
  6
CONTINUOUS
 62
    6
 10
1140.1924339500633
 20
123.80612089827252
 11
1139.4721366263725
 21
122.68836562697956
  0
LINE
  8
_1-0_
  6
CONTINUOUS
 62
    6
 10
1139.4721366263725
 20
122.68836562697956
 11
1138.6276245117187
 21
121.54586637342298
  0
LINE
  8
_1-0_
  6
CONTINUOUS
 62
    6
 10
1138.6276245117187
 20
121.54586637342298
 11
1137.1869061444258
 21
119.95614283793685
  0
LINE
  8
_1-0_
  6
CONTINUOUS
 62
    6
 10
1137.1869061444258
 20
119.95614283793685
 11
1136.7147909628379
 21
119.48422096871042
  0
LINE
  8
_1-0_
  6
CONTINUOUS
 62
    6
 10
1136.7147909628379
 20
119.48422096871042
 11
1135.7464352169554
 21
118.61483341938744
  0
LINE
  8
_1-0_
  6
CONTINUOUS
 62
    6
 10
1135.7464352169554
 20
118.61483341938744
 11
1134.75246944943
 21
117.86963746354388
  0
LINE
  8
_1-0_
  6
CONTINUOUS
 62
    6
 10
1134.75246944943
 20
117.86963746354388
 11
1134.3801962362754
 21
117.44747419615052
  0
LINE
  8
_1-0_
  6
CONTINUOUS
 62
    6
 10
1134.3801962362754
 20
117.44747419615052
 11
1134.2559814453125
 21
116.97555232692409
  0
LINE
  8
_1-0_
  6
CONTINUOUS
 62
    6
 10
1134.2559814453125
 20
116.97555232692409
 11
1134.4298079207138
 21
116.45386412337018
  0
LINE
  8
_1-0_
  6
CONTINUOUS
 62
    6
 10
1134.4298079207138
 20
116.45386412337018
 11
1134.9514110668288
 21
116.28003764796901
  0
LINE
  8
_1-0_
  6
CONTINUOUS
 62
    6
 10
1134.9514110668288
 20
116.28003764796901
 11
1135.4232788085937
 21
116.40426790392077
  0
LINE
  8
_1-0_
  6
CONTINUOUS
 62
    6
 10
1135.4232788085937
 20
116.40426790392077
 11
1136.0442290434967
 21
116.77686588184258
  0
LINE
  8
_1-0_
  6
CONTINUOUS
 62
    6
 10
1136.0442290434967
 20
116.77686588184258
 11
1137.286376953125
 21
117.86963746354388
  0
LINE
  8
_1-0_
  6
CONTINUOUS
 62
    6
 10
1137.286376953125
 20
117.86963746354388
 11
1138.6276245117187
 21
119.16134293014942
  0
LINE
  8
_1-0_
  6
CONTINUOUS
 62
    6
 10
1138.6276245117187
 20
119.16134293014942
 11
1139.7451864706504
 21
120.50265234869883
  0
LINE
  8
_1-0_
  6
CONTINUOUS
 62
    6
 10
1139.7451864706504
 20
120.50265234869883
 11
1140.0930868612754
 21
120.94971424824486
  0
LINE
  8
_1-0_
  6
CONTINUOUS
 62
    6
 10
1140.0930868612754
 20
120.94971424824486
 11
1140.7387810784419
 21
121.84396176724817
  0
LINE
  8
_1-0_
  6
CONTINUOUS
 62
    6
 10
1140.7387810784419
 20
121.84396176724817
 11
1141.309995908995
 21
122.73812422881257
  0
LINE
  8
_1-0_
  6
CONTINUOUS
 62
    6
 10
1141.309995908995
 20
122.73812422881257
 11
1141.309995908995
 21
115.28650490013334
  0
LINE
  8
_1-0_
  6
CONTINUOUS
 62
    6
 10
1141.309995908995
 20
115.28650490013334
 11
1141.4340869800465
 21
114.69039916992187
  0
LINE
  8
_1-0_
  6
CONTINUOUS
 62
    6
 10
1141.4340869800465
 20
114.69039916992187
 11
1141.5335577887458
 21
114.54134760676205
  0
LINE
  8
_1-0_
  6
CONTINUOUS
 62
    6
 10
1141.5335577887458
 20
114.54134760676205
 11
1141.8068550728462
 21
114.34253744176914
  0
LINE
  8
_1-0_
  6
CONTINUOUS
 62
    6
 10
1141.8068550728462
 20
114.34253744176914
 11
1142.2041197080871
 21
114.29293348982526
  0
LINE
  8
_1-0_
  6
CONTINUOUS
 62
    6
 10
1142.2041197080871
 20
114.29293348982526
 11
1142.7507142762879
 21
114.44198505298516
  0
LINE
  8
_1-0_
  6
CONTINUOUS
 62
    6
 10
1142.7507142762879
 20
114.44198505298516
 11
1142.8749290672508
 21
114.54134760676205
  0
LINE
  8
_1-0_
  6
CONTINUOUS
 62
    6
 10
1142.8749290672508
 20
114.54134760676205
 11
1143.0487555426521
 21
114.83944300058724
  0
LINE
  8
_1-0_
  6
CONTINUOUS
 62
    6
 10
1143.0487555426521
 20
114.83944300058724
 11
1143.0983672270904
 21
115.28650490013334
  0
LINE
  8
_1-0_
  6
CONTINUOUS
 62
    6
 10
1143.0983672270904
 20
115.28650490013334
 11
1143.0983672270904
 21
123.23487513774154
  0
LINE
  8
_1-0_
  6
CONTINUOUS
 62
    6
 10
1143.0983672270904
 20
123.23487513774154
 11
1144.2904085726352
 21
121.4465038196461
  0
LINE
  8
_1-0_
  6
CONTINUOUS
 62
    6
 10
1144.2904085726352
 20
121.4465038196461
 11
1145.4829447978252
 21
119.85681894663216
  0
LINE
  8
_1-0_
  6
CONTINUOUS
 62
    6
 10
1145.4829447978252
 20
119.85681894663216
 11
1146.6751098632812
 21
118.36658168483424
  0
LINE
  8
_1-0_
  6
CONTINUOUS
 62
    6
 10
1146.6751098632812
 20
118.36658168483424
 11
1147.867151208826
 21
117.07483755575645
  0
LINE
  8
_1-0_
  6
CONTINUOUS
 62
    6
 10
1147.867151208826
 20
117.07483755575645
 11
1148.3643815324112
 21
116.70227824030697
  0
LINE
  8
_1-0_
  6
CONTINUOUS
 62
    6
 10
1148.3643815324112
 20
116.70227824030697
 11
1148.86099325644
 21
116.57809437932194
  0
LINE
  8
_1-0_
  6
CONTINUOUS
 62
    6
 10
1148.86099325644
 20
116.57809437932194
 11
1149.3579761402027
 21
116.70227824030697
  0
LINE
  8
_1-0_
  6
CONTINUOUS
 62
    6
 10
1149.3579761402027
 20
116.70227824030697
 11
1149.4570757891681
 21
116.80160213161159
  0
LINE
  8
_1-0_
  6
CONTINUOUS
 62
    6
 10
1149.4570757891681
 20
116.80160213161159
 11
1149.6061582823058
 21
117.07483755575645
  0
LINE
  8
_1-0_
  6
CONTINUOUS
 62
    6
 10
1149.6061582823058
 20
117.07483755575645
 11
1149.6557699667442
 21
117.47217951594173
  0
LINE
  8
_1-0_
  6
CONTINUOUS
 62
    6
 10
1149.6557699667442
 20
117.47217951594173
 11
1149.531802615604
 21
117.89449743322422
  0
LINE
  8
_1-0_
  6
CONTINUOUS
 62
    6
 10
1149.531802615604
 20
117.89449743322422
 11
1149.1590345228042
 21
118.36658168483424
  0
LINE
  8
_1-0_
  6
CONTINUOUS
 62
    6
 10
1149.1590345228042
 20
118.36658168483424
 11
1147.5693573822846
 21
119.95614283793685
  0
LINE
  8
_1-0_
  6
CONTINUOUS
 62
    6
 10
1147.5693573822846
 20
119.95614283793685
 11
1147.0726219383446
 21
120.50265234869883
  0
LINE
  8
_1-0_
  6
CONTINUOUS
 62
    6
 10
1147.0726219383446
 20
120.50265234869883
 11
1146.1038950327281
 21
121.59547032536686
  0
LINE
  8
_1-0_
  6
CONTINUOUS
 62
    6
 10
1146.1038950327281
 20
121.59547032536686
 11
1145.1849035314613
 21
122.73812422881257
  0
LINE
  8
_1-0_
  6
CONTINUOUS
 62
    6
 10
1145.1849035314613
 20
122.73812422881257
 11
1144.0673415725296
 21
124.35266907150684
  0
LINE
  8
_1-0_
  6
CONTINUOUS
 62
    6
 10
1144.0673415725296
 20
124.35266907150684
 11
1143.7940442884292
 21
124.7996923085806
  0
LINE
  8
_1-0_
  6
CONTINUOUS
 62
    6
 10
1143.7940442884292
 20
124.7996923085806
 11
1143.3966559332771
 21
125.52002829474375
  0
LINE
  8
_1-0_
  6
CONTINUOUS
 62
    6
 10
1143.3966559332771
 20
125.52002829474375
 11
1143.1980854756123
 21
126.01685652861725
  0
LINE
  8
_1-0_
  6
CONTINUOUS
 62
    6
 10
1143.1980854756123
 20
126.01685652861725
 11
1148.86099325644
 21
126.01685652861725
  0
LINE
  8
_1-0_
  6
CONTINUOUS
 62
    6
 10
1148.86099325644
 20
126.01685652861725
 11
1149.3579761402027
 21
126.11618041992187
  0
LINE
  8
_1-0_
  6
CONTINUOUS
 62
    6
 10
1149.3579761402027
 20
126.11618041992187
 11
1149.4570757891681
 21
126.19064434154616
  0
LINE
  8
_1-0_
  6
CONTINUOUS
 62
    6
 10
1149.4570757891681
 20
126.19064434154616
 11
1149.6061582823058
 21
126.41419075630807
  0
LINE
  8
_1-0_
  6
CONTINUOUS
 62
    6
 10
1149.6061582823058
 20
126.41419075630807
 11
1149.6557699667442
 21
126.71228615013334
  0
LINE
  8
_1-0_
  6
CONTINUOUS
 62
    6
 10
1149.6557699667442
 20
126.71228615013334
 11
1149.5565465978675
 21
127.13448807999896
  0
LINE
  8
_1-0_
  6
CONTINUOUS
 62
    6
 10
1149.5565465978675
 20
127.13448807999896
 11
1149.4570757891681
 21
127.23385063377592
  0
LINE
  8
_1-0_
  6
CONTINUOUS
 62
    6
 10
1149.4570757891681
 20
127.23385063377592
 11
1149.2087699271538
 21
127.35804222725534
  0
LINE
  8
_1-0_
  6
CONTINUOUS
 62
    6
 10
1149.2087699271538
 20
127.35804222725534
 11
1148.86099325644
 21
127.40772350414382
  0
LINE
  8
_1-0_
  6
CONTINUOUS
 62
    6
 10
1148.86099325644
 20
127.40772350414382
 11
1143.0983672270904
 21
127.40772350414382
  0
LINE
  8
_1-0_
  6
CONTINUOUS
 62
    6
 10
1143.0983672270904
 20
127.40772350414382
 11
1143.0983672270904
 21
132.07740783691406
  0
LINE
  8
_1-0_
  6
CONTINUOUS
 62
    6
 10
1143.0983672270904
 20
132.07740783691406
 11
1147.1719690271327
 21
132.07740783691406
  0
LINE
  8
_1-0_
  6
CONTINUOUS
 62
    6
 10
1147.1719690271327
 20
132.07740783691406
 11
1147.668828190984
 21
132.17672399572422
  0
LINE
  8
_1-0_
  6
CONTINUOUS
 62
    6
 10
1147.668828190984
 20
132.17672399572422
 11
1147.7681752797721
 21
132.25131163725985
  0
LINE
  8
_1-0_
  6
CONTINUOUS
 62
    6
 10
1147.7681752797721
 20
132.25131163725985
 11
1147.9171340529983
 21
132.47485805202174
  0
LINE
  8
_1-0_
  6
CONTINUOUS
 62
    6
 10
1147.9171340529983
 20
132.47485805202174
 11
1147.9669931772594
 21
132.77283745843008
  0
LINE
  8
_1-0_
  6
CONTINUOUS
 62
    6
 10
1147.9669931772594
 20
132.77283745843008
 11
1147.867151208826
 21
133.19520177067938
  0
LINE
  8
_1-0_
  6
CONTINUOUS
 62
    6
 10
1147.867151208826
 20
133.19520177067938
 11
1147.7681752797721
 21
133.29464164940092
  0
LINE
  8
_1-0_
  6
CONTINUOUS
 62
    6
 10
1147.7681752797721
 20
133.29464164940092
 11
1147.519621977935
 21
133.41870179047453
  0
LINE
  8
_1-0_
  6
CONTINUOUS
 62
    6
 10
1147.519621977935
 20
133.41870179047453
 11
1147.1719690271327
 21
133.46846812480209
  0
LINE
  8
_1-0_
  6
CONTINUOUS
 62
    6
 10
1147.1719690271327
 20
133.46846812480209
 11
1143.0983672270904
 21
133.46846812480209
  0
LINE
  8
_1-0_
  6
CONTINUOUS
 62
    6
 10
1143.0983672270904
 20
133.46846812480209
 11
1143.0983672270904
 21
136.05160068821263
  0
LINE
  8
_1-0_
  6
CONTINUOUS
 62
    6
 10
1143.0983672270904
 20
136.05160068821263
 11
1142.9743998759502
 21
136.64771415091849
  0
LINE
  8
_1-0_
  6
CONTINUOUS
 62
    6
 10
1142.9743998759502
 20
136.64771415091849
 11
1142.8749290672508
 21
136.79676571407833
  0
LINE
  8
_1-0_
  6
CONTINUOUS
 62
    6
 10
1142.8749290672508
 20
136.79676571407833
 11
1142.6016317831504
 21
136.97071590939083
  0
LINE
  8
_1-0_
  6
CONTINUOUS
 62
    6
 10
1142.6016317831504
 20
136.97071590939083
 11
1142.2041197080871
 21
137.0451798310151
  0
LINE
  8
_1-0_
  6
CONTINUOUS
 62
    6
 10
1142.2041197080871
 20
137.0451798310151
 11
1141.6576488597975
 21
136.89612826785526
  0
LINE
  8
_1-0_
  6
CONTINUOUS
 62
    6
 10
1141.6576488597975
 20
136.89612826785526
 11
1141.5335577887458
 21
136.79676571407833
  0
LINE
  8
_1-0_
  6
CONTINUOUS
 62
    6
 10
1141.5335577887458
 20
136.79676571407833
 11
1141.3597313133446
 21
136.47388767551732
  0
LINE
  8
_1-0_
  6
CONTINUOUS
 62
    6
 10
1141.3597313133446
 20
136.47388767551732
 11
1141.309995908995
 21
136.05160068821263
  0
LINE
  8
_1-0_
  6
CONTINUOUS
 62
    6
 10
1130.4804209116344
 20
136.25024847082187
 11
1130.4804209116344
 21
132.97163989092851
  0
LINE
  8
_1-0_
  6
CONTINUOUS
 62
    6
 10
1130.4804209116344
 20
132.97163989092851
 11
1127.5992316168708
 21
132.97163989092851
  0
LINE
  8
_1-0_
  6
CONTINUOUS
 62
    6
 10
1127.5992316168708
 20
132.97163989092851
 11
1127.1269927153717
 21
132.87232373211836
  0
LINE
  8
_1-0_
  6
CONTINUOUS
 62
    6
 10
1127.1269927153717
 20
132.87232373211836
 11
1127.0030253642315
 21
132.79773609058282
  0
LINE
  8
_1-0_
  6
CONTINUOUS
 62
    6
 10
1127.0030253642315
 20
132.79773609058282
 11
1126.8538191511825
 21
132.57418967582083
  0
LINE
  8
_1-0_
  6
CONTINUOUS
 62
    6
 10
1126.8538191511825
 20
132.57418967582083
 11
1126.8042074667442
 21
132.2762102694125
  0
LINE
  8
_1-0_
  6
CONTINUOUS
 62
    6
 10
1126.8042074667442
 20
132.2762102694125
 11
1126.9284222577071
 21
131.85389235212995
  0
LINE
  8
_1-0_
  6
CONTINUOUS
 62
    6
 10
1126.9284222577071
 20
131.85389235212995
 11
1127.0030253642315
 21
131.75452979835308
  0
LINE
  8
_1-0_
  6
CONTINUOUS
 62
    6
 10
1127.0030253642315
 20
131.75452979835308
 11
1127.2513312262458
 21
131.63034593736802
  0
LINE
  8
_1-0_
  6
CONTINUOUS
 62
    6
 10
1127.2513312262458
 20
131.63034593736802
 11
1127.5992316168708
 21
131.58065692798516
  0
LINE
  8
_1-0_
  6
CONTINUOUS
 62
    6
 10
1127.5992316168708
 20
131.58065692798516
 11
1130.4804209116344
 21
131.58065692798516
  0
LINE
  8
_1-0_
  6
CONTINUOUS
 62
    6
 10
1130.4804209116344
 20
131.58065692798516
 11
1130.3064707163219
 21
130.09034234124258
  0
LINE
  8
_1-0_
  6
CONTINUOUS
 62
    6
 10
1130.3064707163219
 20
130.09034234124258
 11
1130.1576356630067
 21
129.46936890885638
  0
LINE
  8
_1-0_
  6
CONTINUOUS
 62
    6
 10
1130.1576356630067
 20
129.46936890885638
 11
1129.7602473078548
 21
128.02869693653008
  0
LINE
  8
_1-0_
  6
CONTINUOUS
 62
    6
 10
1129.7602473078548
 20
128.02869693653008
 11
1129.188785037479
 21
126.31482820253112
  0
LINE
  8
_1-0_
  6
CONTINUOUS
 62
    6
 10
1129.188785037479
 20
126.31482820253112
 11
1128.5429671004013
 21
124.92391483203789
  0
LINE
  8
_1-0_
  6
CONTINUOUS
 62
    6
 10
1128.5429671004013
 20
124.92391483203789
 11
1128.3194052206504
 21
124.45186924290013
  0
LINE
  8
_1-0_
  6
CONTINUOUS
 62
    6
 10
1128.3194052206504
 20
124.45186924290013
 11
1127.8227934966217
 21
123.5328468116554
  0
LINE
  8
_1-0_
  6
CONTINUOUS
 62
    6
 10
1127.8227934966217
 20
123.5328468116554
 11
1127.3006954708617
 21
122.63876167503568
  0
LINE
  8
_1-0_
  6
CONTINUOUS
 62
    6
 10
1127.3006954708617
 20
122.63876167503568
 11
1127.0776284707561
 21
122.31575991656328
  0
LINE
  8
_1-0_
  6
CONTINUOUS
 62
    6
 10
1127.0776284707561
 20
122.31575991656328
 11
1127.0030253642315
 21
121.94332432102513
  0
LINE
  8
_1-0_
  6
CONTINUOUS
 62
    6
 10
1127.0030253642315
 20
121.94332432102513
 11
1127.1022487331081
 21
121.49622375900684
  0
LINE
  8
_1-0_
  6
CONTINUOUS
 62
    6
 10
1127.1022487331081
 20
121.49622375900684
 11
1127.4005374392948
 21
121.34705620843008
  0
LINE
  8
_1-0_
  6
CONTINUOUS
 62
    6
 10
1127.4005374392948
 20
121.34705620843008
 11
1127.9218931455871
 21
121.47127873188744
  0
LINE
  8
_1-0_
  6
CONTINUOUS
 62
    6
 10
1127.9218931455871
 20
121.47127873188744
 11
1128.2945375184754
 21
121.84396176724817
  0
LINE
  8
_1-0_
  6
CONTINUOUS
 62
    6
 10
1128.2945375184754
 20
121.84396176724817
 11
1128.7666527000633
 21
122.56417403350007
  0
LINE
  8
_1-0_
  6
CONTINUOUS
 62
    6
 10
1128.7666527000633
 20
122.56417403350007
 11
1129.188785037479
 21
123.33423769151842
  0
LINE
  8
_1-0_
  6
CONTINUOUS
 62
    6
 10
1129.188785037479
 20
123.33423769151842
 11
1129.8597181165542
 21
124.72510466704499
  0
LINE
  8
_1-0_
  6
CONTINUOUS
 62
    6
 10
1129.8597181165542
 20
124.72510466704499
 11
1130.4804209116344
 21
126.31482820253112
  0
LINE
  8
_1-0_
  6
CONTINUOUS
 62
    6
 10
1130.4804209116344
 20
126.31482820253112
 11
1130.4804209116344
 21
115.08785711752402
  0
LINE
  8
_1-0_
  6
CONTINUOUS
 62
    6
 10
1130.4804209116344
 20
115.08785711752402
 11
1130.5798917203338
 21
114.59102888365052
  0
LINE
  8
_1-0_
  6
CONTINUOUS
 62
    6
 10
1130.5798917203338
 20
114.59102888365052
 11
1130.6542473870356
 21
114.49170499234583
  0
LINE
  8
_1-0_
  6
CONTINUOUS
 62
    6
 10
1130.6542473870356
 20
114.49170499234583
 11
1130.8778092667862
 21
114.34253744176914
  0
LINE
  8
_1-0_
  6
CONTINUOUS
 62
    6
 10
1130.8778092667862
 20
114.34253744176914
 11
1131.1760979729731
 21
114.29293348982526
  0
LINE
  8
_1-0_
  6
CONTINUOUS
 62
    6
 10
1131.1760979729731
 20
114.29293348982526
 11
1131.5981065904773
 21
114.39221871865762
  0
LINE
  8
_1-0_
  6
CONTINUOUS
 62
    6
 10
1131.5981065904773
 20
114.39221871865762
 11
1131.6975773991767
 21
114.49170499234583
  0
LINE
  8
_1-0_
  6
CONTINUOUS
 62
    6
 10
1131.6975773991767
 20
114.49170499234583
 11
1131.8216684702281
 21
114.73999538937129
  0
LINE
  8
_1-0_
  6
CONTINUOUS
 62
    6
 10
1131.8216684702281
 20
114.73999538937129
 11
1131.8714038745777
 21
115.08785711752402
  0
LINE
  8
_1-0_
  6
CONTINUOUS
 62
    6
 10
1131.8714038745777
 20
115.08785711752402
 11
1131.8714038745777
 21
127.10962811031855
  0
LINE
  8
_1-0_
  6
CONTINUOUS
 62
    6
 10
1131.8714038745777
 20
127.10962811031855
 11
1132.417751002956
 21
126.2403642809069
  0
LINE
  8
_1-0_
  6
CONTINUOUS
 62
    6
 10
1132.417751002956
 20
126.2403642809069
 11
1132.8648747624579
 21
125.42061934600007
  0
LINE
  8
_1-0_
  6
CONTINUOUS
 62
    6
 10
1132.8648747624579
 20
125.42061934600007
 11
1133.386601628484
 21
124.1538975689862
  0
LINE
  8
_1-0_
  6
CONTINUOUS
 62
    6
 10
1133.386601628484
 20
124.1538975689862
 11
1133.7591222814613
 21
123.33423769151842
  0
LINE
  8
_1-0_
  6
CONTINUOUS
 62
    6
 10
1133.7591222814613
 20
123.33423769151842
 11
1134.1316429344383
 21
122.81271187034818
  0
LINE
  8
_1-0_
  6
CONTINUOUS
 62
    6
 10
1134.1316429344383
 20
122.81271187034818
 11
1134.6534935203758
 21
122.63876167503568
  0
LINE
  8
_1-0_
  6
CONTINUOUS
 62
    6
 10
1134.6534935203758
 20
122.63876167503568
 11
1135.0257667335304
 21
122.81271187034818
  0
LINE
  8
_1-0_
  6
CONTINUOUS
 62
    6
 10
1135.0257667335304
 20
122.81271187034818
 11
1135.1499815244933
 21
123.33423769151842
  0
LINE
  8
_1-0_
  6
CONTINUOUS
 62
    6
 10
1135.1499815244933
 20
123.33423769151842
 11
1135.0257667335304
 21
124.07935632241738
  0
LINE
  8
_1-0_
  6
CONTINUOUS
 62
    6
 10
1135.0257667335304
 20
124.07935632241738
 11
1134.9265433646538
 21
124.35266907150684
  0
LINE
  8
_1-0_
  6
CONTINUOUS
 62
    6
 10
1134.9265433646538
 20
124.35266907150684
 11
1134.6534935203758
 21
124.94882119668496
  0
LINE
  8
_1-0_
  6
CONTINUOUS
 62
    6
 10
1134.6534935203758
 20
124.94882119668496
 11
1134.2559814453125
 21
125.61939084852064
  0
LINE
  8
_1-0_
  6
CONTINUOUS
 62
    6
 10
1134.2559814453125
 20
125.61939084852064
 11
1133.4114693306587
 21
126.91110404762064
  0
LINE
  8
_1-0_
  6
CONTINUOUS
 62
    6
 10
1133.4114693306587
 20
126.91110404762064
 11
1133.1134280642948
 21
127.30843827531146
  0
LINE
  8
_1-0_
  6
CONTINUOUS
 62
    6
 10
1133.1134280642948
 20
127.30843827531146
 11
1132.5172218116554
 21
128.07833955094623
  0
LINE
  8
_1-0_
  6
CONTINUOUS
 62
    6
 10
1132.5172218116554
 20
128.07833955094623
 11
1131.8714038745777
 21
128.7987992570207
  0
LINE
  8
_1-0_
  6
CONTINUOUS
 62
    6
 10
1131.8714038745777
 20
128.7987992570207
 11
1131.8714038745777
 21
131.58065692798516
  0
LINE
  8
_1-0_
  6
CONTINUOUS
 62
    6
 10
1131.8714038745777
 20
131.58065692798516
 11
1134.6534935203758
 21
131.58065692798516
  0
LINE
  8
_1-0_
  6
CONTINUOUS
 62
    6
 10
1134.6534935203758
 20
131.58065692798516
 11
1135.1499815244933
 21
131.67994215681745
  0
LINE
  8
_1-0_
  6
CONTINUOUS
 62
    6
 10
1135.1499815244933
 20
131.67994215681745
 11
1135.2494523331925
 21
131.75452979835308
  0
LINE
  8
_1-0_
  6
CONTINUOUS
 62
    6
 10
1135.2494523331925
 20
131.75452979835308
 11
1135.3985348263304
 21
131.97802981814823
  0
LINE
  8
_1-0_
  6
CONTINUOUS
 62
    6
 10
1135.3985348263304
 20
131.97802981814823
 11
1135.4478990709461
 21
132.2762102694125
  0
LINE
  8
_1-0_
  6
CONTINUOUS
 62
    6
 10
1135.4478990709461
 20
132.2762102694125
 11
1135.3489231418919
 21
132.69837353680586
  0
LINE
  8
_1-0_
  6
CONTINUOUS
 62
    6
 10
1135.3489231418919
 20
132.69837353680586
 11
1135.2494523331925
 21
132.79773609058282
  0
LINE
  8
_1-0_
  6
CONTINUOUS
 62
    6
 10
1135.2494523331925
 20
132.79773609058282
 11
1135.0010227512669
 21
132.9219663465345
  0
LINE
  8
_1-0_
  6
CONTINUOUS
 62
    6
 10
1135.0010227512669
 20
132.9219663465345
 11
1134.6534935203758
 21
132.97163989092851
  0
LINE
  8
_1-0_
  6
CONTINUOUS
 62
    6
 10
1134.6534935203758
 20
132.97163989092851
 11
1131.8714038745777
 21
132.97163989092851
  0
LINE
  8
_1-0_
  6
CONTINUOUS
 62
    6
 10
1131.8714038745777
 20
132.97163989092851
 11
1131.8714038745777
 21
136.25024847082187
  0
LINE
  8
_1-0_
  6
CONTINUOUS
 62
    6
 10
1131.8714038745777
 20
136.25024847082187
 11
1131.7720567857898
 21
136.72230179245412
  0
LINE
  8
_1-0_
  6
CONTINUOUS
 62
    6
 10
1131.7720567857898
 20
136.72230179245412
 11
1131.6975773991767
 21
136.84653204840586
  0
LINE
  8
_1-0_
  6
CONTINUOUS
 62
    6
 10
1131.6975773991767
 20
136.84653204840586
 11
1131.4740155194258
 21
136.99544442666541
  0
LINE
  8
_1-0_
  6
CONTINUOUS
 62
    6
 10
1131.4740155194258
 20
136.99544442666541
 11
1131.1760979729731
 21
137.0451798310151
  0
LINE
  8
_1-0_
  6
CONTINUOUS
 62
    6
 10
1131.1760979729731
 20
137.0451798310151
 11
1130.753718195735
 21
136.92098050504114
  0
LINE
  8
_1-0_
  6
CONTINUOUS
 62
    6
 10
1130.753718195735
 20
136.92098050504114
 11
1130.6542473870356
 21
136.84653204840586
  0
LINE
  8
_1-0_
  6
CONTINUOUS
 62
    6
 10
1130.6542473870356
 20
136.84653204840586
 11
1130.5300325960727
 21
136.59814886144687
  0
LINE
  8
_1-0_
  6
CONTINUOUS
 62
    6
 10
1130.5300325960727
 20
136.59814886144687
 11
1130.4804209116344
 21
136.25024847082187
  0
LINE
  8
_1-0_
  6
CONTINUOUS
 62
    6
 10
1166.5784268765838
 20
127.10962811031855
 11
1157.0404877533783
 21
127.10962811031855
  0
LINE
  8
_1-0_
  6
CONTINUOUS
 62
    6
 10
1157.0404877533783
 20
127.10962811031855
 11
1156.5683725717906
 21
127.01026555654167
  0
LINE
  8
_1-0_
  6
CONTINUOUS
 62
    6
 10
1156.5683725717906
 20
127.01026555654167
 11
1156.4441577808277
 21
126.93580163491738
  0
LINE
  8
_1-0_
  6
CONTINUOUS
 62
    6
 10
1156.4441577808277
 20
126.93580163491738
 11
1156.2953227275127
 21
126.71228615013334
  0
LINE
  8
_1-0_
  6
CONTINUOUS
 62
    6
 10
1156.2953227275127
 20
126.71228615013334
 11
1156.2457110430744
 21
126.41419075630807
  0
LINE
  8
_1-0_
  6
CONTINUOUS
 62
    6
 10
1156.2457110430744
 20
126.41419075630807
 11
1156.3698021141258
 21
125.99195016397012
  0
LINE
  8
_1-0_
  6
CONTINUOUS
 62
    6
 10
1156.3698021141258
 20
125.99195016397012
 11
1156.4441577808277
 21
125.89266493513776
  0
LINE
  8
_1-0_
  6
CONTINUOUS
 62
    6
 10
1156.4441577808277
 20
125.89266493513776
 11
1156.692834802576
 21
125.76831869176914
  0
LINE
  8
_1-0_
  6
CONTINUOUS
 62
    6
 10
1156.692834802576
 20
125.76831869176914
 11
1157.0404877533783
 21
125.71871473982526
  0
LINE
  8
_1-0_
  6
CONTINUOUS
 62
    6
 10
1157.0404877533783
 20
125.71871473982526
 11
1160.9152716559333
 21
125.71871473982526
  0
LINE
  8
_1-0_
  6
CONTINUOUS
 62
    6
 10
1160.9152716559333
 20
125.71871473982526
 11
1160.9152716559333
 21
118.06832390862539
  0
LINE
  8
_1-0_
  6
CONTINUOUS
 62
    6
 10
1160.9152716559333
 20
118.06832390862539
 11
1158.307255925359
 21
117.89449743322422
  0
LINE
  8
_1-0_
  6
CONTINUOUS
 62
    6
 10
1158.307255925359
 20
117.89449743322422
 11
1155.848198968011
 21
117.77035223471152
  0
LINE
  8
_1-0_
  6
CONTINUOUS
 62
    6
 10
1155.848198968011
 20
117.77035223471152
 11
1155.3014806798988
 21
117.64612971125423
  0
LINE
  8
_1-0_
  6
CONTINUOUS
 62
    6
 10
1155.3014806798988
 20
117.64612971125423
 11
1155.1776370486698
 21
117.57166578962995
  0
LINE
  8
_1-0_
  6
CONTINUOUS
 62
    6
 10
1155.1776370486698
 20
117.57166578962995
 11
1155.0038105732685
 21
117.32325167269323
  0
LINE
  8
_1-0_
  6
CONTINUOUS
 62
    6
 10
1155.0038105732685
 20
117.32325167269323
 11
1154.954075168919
 21
116.97555232692409
  0
LINE
  8
_1-0_
  6
CONTINUOUS
 62
    6
 10
1154.954075168919
 20
116.97555232692409
 11
1155.0780425200592
 21
116.47872409305059
  0
LINE
  8
_1-0_
  6
CONTINUOUS
 62
    6
 10
1155.0780425200592
 20
116.47872409305059
 11
1155.1776370486698
 21
116.37940020174597
  0
LINE
  8
_1-0_
  6
CONTINUOUS
 62
    6
 10
1155.1776370486698
 20
116.37940020174597
 11
1155.450810612859
 21
116.2303563710806
  0
LINE
  8
_1-0_
  6
CONTINUOUS
 62
    6
 10
1155.450810612859
 20
116.2303563710806
 11
1155.848198968011
 21
116.18062869922539
  0
LINE
  8
_1-0_
  6
CONTINUOUS
 62
    6
 10
1155.848198968011
 20
116.18062869922539
 11
1159.2262474266258
 21
116.3545015695933
  0
LINE
  8
_1-0_
  6
CONTINUOUS
 62
    6
 10
1159.2262474266258
 20
116.3545015695933
 11
1160.3686770877323
 21
116.45386412337018
  0
LINE
  8
_1-0_
  6
CONTINUOUS
 62
    6
 10
1160.3686770877323
 20
116.45386412337018
 11
1162.6292873073269
 21
116.6773796081543
  0
LINE
  8
_1-0_
  6
CONTINUOUS
 62
    6
 10
1162.6292873073269
 20
116.6773796081543
 11
1162.4303456899283
 21
116.65267428836309
  0
LINE
  8
_1-0_
  6
CONTINUOUS
 62
    6
 10
1162.4303456899283
 20
116.65267428836309
 11
1164.914270349451
 21
116.97555232692409
  0
LINE
  8
_1-0_
  6
CONTINUOUS
 62
    6
 10
1164.914270349451
 20
116.97555232692409
 11
1165.7340384818413
 21
117.09973618790912
  0
LINE
  8
_1-0_
  6
CONTINUOUS
 62
    6
 10
1165.7340384818413
 20
117.09973618790912
 11
1167.3983187288852
 21
117.37289428710937
  0
LINE
  8
_1-0_
  6
CONTINUOUS
 62
    6
 10
1167.3983187288852
 20
117.37289428710937
 11
1169.0624752560179
 21
117.67098968093464
  0
LINE
  8
_1-0_
  6
CONTINUOUS
 62
    6
 10
1169.0624752560179
 20
117.67098968093464
 11
1169.584202122044
 21
117.9691237372321
  0
LINE
  8
_1-0_
  6
CONTINUOUS
 62
    6
 10
1169.584202122044
 20
117.9691237372321
 11
1169.7577811576225
 21
118.465789588722
  0
LINE
  8
_1-0_
  6
CONTINUOUS
 62
    6
 10
1169.7577811576225
 20
118.465789588722
 11
1169.584202122044
 21
118.8880688435323
  0
LINE
  8
_1-0_
  6
CONTINUOUS
 62
    6
 10
1169.584202122044
 20
118.8880688435323
 11
1169.4846075934333
 21
118.98755511722051
  0
LINE
  8
_1-0_
  6
CONTINUOUS
 62
    6
 10
1169.4846075934333
 20
118.98755511722051
 11
1169.2114340292442
 21
119.11166165326094
  0
LINE
  8
_1-0_
  6
CONTINUOUS
 62
    6
 10
1169.2114340292442
 20
119.11166165326094
 11
1168.8634099187079
 21
119.16134293014942
  0
LINE
  8
_1-0_
  6
CONTINUOUS
 62
    6
 10
1168.8634099187079
 20
119.16134293014942
 11
1166.5040712098817
 21
118.76392364501953
  0
LINE
  8
_1-0_
  6
CONTINUOUS
 62
    6
 10
1166.5040712098817
 20
118.76392364501953
 11
1165.7340384818413
 21
118.6397397840345
  0
LINE
  8
_1-0_
  6
CONTINUOUS
 62
    6
 10
1165.7340384818413
 20
118.6397397840345
 11
1164.2189644478462
 21
118.4410069439862
  0
LINE
  8
_1-0_
  6
CONTINUOUS
 62
    6
 10
1164.2189644478462
 20
118.4410069439862
 11
1162.7035192541175
 21
118.26709541114603
  0
LINE
  8
_1-0_
  6
CONTINUOUS
 62
    6
 10
1162.7035192541175
 20
118.26709541114603
 11
1162.7035192541175
 21
125.71871473982526
  0
LINE
  8
_1-0_
  6
CONTINUOUS
 62
    6
 10
1162.7035192541175
 20
125.71871473982526
 11
1166.5784268765838
 21
125.71871473982526
  0
LINE
  8
_1-0_
  6
CONTINUOUS
 62
    6
 10
1166.5784268765838
 20
125.71871473982526
 11
1167.0751623205238
 21
125.81808502609668
  0
LINE
  8
_1-0_
  6
CONTINUOUS
 62
    6
 10
1167.0751623205238
 20
125.81808502609668
 11
1167.1747568491344
 21
125.89266493513776
  0
LINE
  8
_1-0_
  6
CONTINUOUS
 62
    6
 10
1167.1747568491344
 20
125.89266493513776
 11
1167.3235919024494
 21
126.11618041992187
  0
LINE
  8
_1-0_
  6
CONTINUOUS
 62
    6
 10
1167.3235919024494
 20
126.11618041992187
 11
1167.3734510267104
 21
126.41419075630807
  0
LINE
  8
_1-0_
  6
CONTINUOUS
 62
    6
 10
1167.3734510267104
 20
126.41419075630807
 11
1167.2741039379225
 21
126.83651640608502
  0
LINE
  8
_1-0_
  6
CONTINUOUS
 62
    6
 10
1167.2741039379225
 20
126.83651640608502
 11
1167.1747568491344
 21
126.93580163491738
  0
LINE
  8
_1-0_
  6
CONTINUOUS
 62
    6
 10
1167.1747568491344
 20
126.93580163491738
 11
1166.9262035472975
 21
127.06002415837467
  0
LINE
  8
_1-0_
  6
CONTINUOUS
 62
    6
 10
1166.9262035472975
 20
127.06002415837467
 11
1166.5784268765838
 21
127.10962811031855
  0
LINE
  8
_1-0_
  6
CONTINUOUS
 62
    6
 10
1172.0431353594806
 20
135.15747688912057
 11
1173.284912109375
 21
134.36256099391628
  0
LINE
  8
_1-0_
  6
CONTINUOUS
 62
    6
 10
1173.284912109375
 20
134.36256099391628
 11
1174.4275892103042
 21
133.56775335363437
  0
LINE
  8
_1-0_
  6
CONTINUOUS
 62
    6
 10
1174.4275892103042
 20
133.56775335363437
 11
1175.1231425517315
 21
133.36910557102513
  0
LINE
  8
_1-0_
  6
CONTINUOUS
 62
    6
 10
1175.1231425517315
 20
133.36910557102513
 11
1175.6198779956715
 21
133.56775335363437
  0
LINE
  8
_1-0_
  6
CONTINUOUS
 62
    6
 10
1175.6198779956715
 20
133.56775335363437
 11
1175.8434398754225
 21
134.01486164814719
  0
LINE
  8
_1-0_
  6
CONTINUOUS
 62
    6
 10
1175.8434398754225
 20
134.01486164814719
 11
1175.8434398754225
 21
134.16391321130703
  0
LINE
  8
_1-0_
  6
CONTINUOUS
 62
    6
 10
1175.8434398754225
 20
134.16391321130703
 11
1175.7440927866344
 21
134.46187715272643
  0
LINE
  8
_1-0_
  6
CONTINUOUS
 62
    6
 10
1175.7440927866344
 20
134.46187715272643
 11
1175.5205309068836
 21
134.76001120902396
  0
LINE
  8
_1-0_
  6
CONTINUOUS
 62
    6
 10
1175.5205309068836
 20
134.76001120902396
 11
1174.6014156857054
 21
135.38099237390469
  0
LINE
  8
_1-0_
  6
CONTINUOUS
 62
    6
 10
1174.6014156857054
 20
135.38099237390469
 11
1174.278382997255
 21
135.57968655148068
  0
LINE
  8
_1-0_
  6
CONTINUOUS
 62
    6
 10
1174.278382997255
 20
135.57968655148068
 11
1173.6325650601775
 21
135.92749415217219
  0
LINE
  8
_1-0_
  6
CONTINUOUS
 62
    6
 10
1173.6325650601775
 20
135.92749415217219
 11
1172.9372591585727
 21
136.25024847082187
  0
LINE
  8
_1-0_
  6
CONTINUOUS
 62
    6
 10
1172.9372591585727
 20
136.25024847082187
 11
1172.3411766258446
 21
136.39930003398177
  0
LINE
  8
_1-0_
  6
CONTINUOUS
 62
    6
 10
1172.3411766258446
 20
136.39930003398177
 11
1172.1920941327071
 21
136.39930003398177
  0
LINE
  8
_1-0_
  6
CONTINUOUS
 62
    6
 10
1172.1920941327071
 20
136.39930003398177
 11
1171.9437882706925
 21
136.27523989290808
  0
LINE
  8
_1-0_
  6
CONTINUOUS
 62
    6
 10
1171.9437882706925
 20
136.27523989290808
 11
1171.7449703732054
 21
136.05160068821263
  0
LINE
  8
_1-0_
  6
CONTINUOUS
 62
    6
 10
1171.7449703732054
 20
136.05160068821263
 11
1171.7201026710304
 21
135.53004393706453
  0
LINE
  8
_1-0_
  6
CONTINUOUS
 62
    6
 10
1171.7201026710304
 20
135.53004393706453
 11
1172.0431353594806
 21
135.15747688912057
  0
LINE
  8
_1-0_
  6
CONTINUOUS
 62
    6
 10
1168.1683514569258
 20
136.05160068821263
 11
1168.2923188080658
 21
134.31284105455552
  0
LINE
  8
_1-0_
  6
CONTINUOUS
 62
    6
 10
1168.2923188080658
 20
134.31284105455552
 11
1168.4661452834671
 21
132.47485805202174
  0
LINE
  8
_1-0_
  6
CONTINUOUS
 62
    6
 10
1168.4661452834671
 20
132.47485805202174
 11
1155.6492573506123
 21
132.47485805202174
  0
LINE
  8
_1-0_
  6
CONTINUOUS
 62
    6
 10
1155.6492573506123
 20
132.47485805202174
 11
1155.1776370486698
 21
132.37557282318937
  0
LINE
  8
_1-0_
  6
CONTINUOUS
 62
    6
 10
1155.1776370486698
 20
132.37557282318937
 11
1155.0534222577071
 21
132.30090785670924
  0
LINE
  8
_1-0_
  6
CONTINUOUS
 62
    6
 10
1155.0534222577071
 20
132.30090785670924
 11
1154.9044634844806
 21
132.07740783691406
  0
LINE
  8
_1-0_
  6
CONTINUOUS
 62
    6
 10
1154.9044634844806
 20
132.07740783691406
 11
1154.8544806403083
 21
131.77938203553893
  0
LINE
  8
_1-0_
  6
CONTINUOUS
 62
    6
 10
1154.8544806403083
 20
131.77938203553893
 11
1154.9789428710937
 21
131.35718783816776
  0
LINE
  8
_1-0_
  6
CONTINUOUS
 62
    6
 10
1154.9789428710937
 20
131.35718783816776
 11
1155.0534222577071
 21
131.25777888942409
  0
LINE
  8
_1-0_
  6
CONTINUOUS
 62
    6
 10
1155.0534222577071
 20
131.25777888942409
 11
1155.3014806798988
 21
131.13354863347234
  0
LINE
  8
_1-0_
  6
CONTINUOUS
 62
    6
 10
1155.3014806798988
 20
131.13354863347234
 11
1155.6492573506123
 21
131.08395241402292
  0
LINE
  8
_1-0_
  6
CONTINUOUS
 62
    6
 10
1155.6492573506123
 20
131.08395241402292
 11
1168.6650869008658
 21
131.08395241402292
  0
LINE
  8
_1-0_
  6
CONTINUOUS
 62
    6
 10
1168.6650869008658
 20
131.08395241402292
 11
1169.3852605046454
 21
127.18421575185417
  0
LINE
  8
_1-0_
  6
CONTINUOUS
 62
    6
 10
1169.3852605046454
 20
127.18421575185417
 11
1169.6584340688346
 21
125.99195016397012
  0
LINE
  8
_1-0_
  6
CONTINUOUS
 62
    6
 10
1169.6584340688346
 20
125.99195016397012
 11
1170.2547640413852
 21
123.7067970069679
  0
LINE
  8
_1-0_
  6
CONTINUOUS
 62
    6
 10
1170.2547640413852
 20
123.7067970069679
 11
1170.2051523569469
 21
123.90548345204948
  0
LINE
  8
_1-0_
  6
CONTINUOUS
 62
    6
 10
1170.2051523569469
 20
123.90548345204948
 11
1170.9005819784629
 21
121.62033029504727
  0
LINE
  8
_1-0_
  6
CONTINUOUS
 62
    6
 10
1170.9005819784629
 20
121.62033029504727
 11
1171.1736318227408
 21
120.89999430888412
  0
LINE
  8
_1-0_
  6
CONTINUOUS
 62
    6
 10
1171.1736318227408
 20
120.89999430888412
 11
1171.6952349688556
 21
119.53394090807116
  0
LINE
  8
_1-0_
  6
CONTINUOUS
 62
    6
 10
1171.6952349688556
 20
119.53394090807116
 11
1172.2417058171454
 21
118.26709541114603
  0
LINE
  8
_1-0_
  6
CONTINUOUS
 62
    6
 10
1172.2417058171454
 20
118.26709541114603
 11
1172.8129206476985
 21
117.1990678117082
  0
LINE
  8
_1-0_
  6
CONTINUOUS
 62
    6
 10
1172.8129206476985
 20
117.1990678117082
 11
1173.0117385451858
 21
116.8513298034668
  0
LINE
  8
_1-0_
  6
CONTINUOUS
 62
    6
 10
1173.0117385451858
 20
116.8513298034668
 11
1173.4589860245987
 21
116.20545000643347
  0
LINE
  8
_1-0_
  6
CONTINUOUS
 62
    6
 10
1173.4589860245987
 20
116.20545000643347
 11
1173.9308537663642
 21
115.58460029395853
  0
LINE
  8
_1-0_
  6
CONTINUOUS
 62
    6
 10
1173.9308537663642
 20
115.58460029395853
 11
1174.7503744589317
 21
114.86414058788405
  0
LINE
  8
_1-0_
  6
CONTINUOUS
 62
    6
 10
1174.7503744589317
 20
114.86414058788405
 11
1174.9989277607685
 21
114.73999538937129
  0
LINE
  8
_1-0_
  6
CONTINUOUS
 62
    6
 10
1174.9989277607685
 20
114.73999538937129
 11
1175.4706717826225
 21
114.66549280527474
  0
LINE
  8
_1-0_
  6
CONTINUOUS
 62
    6
 10
1175.4706717826225
 20
114.66549280527474
 11
1175.4210600981842
 21
114.66549280527474
  0
LINE
  8
_1-0_
  6
CONTINUOUS
 62
    6
 10
1175.4210600981842
 20
114.66549280527474
 11
1175.8681838576858
 21
114.8145830309069
  0
LINE
  8
_1-0_
  6
CONTINUOUS
 62
    6
 10
1175.8681838576858
 20
114.8145830309069
 11
1176.0172663508235
 21
114.93860450950834
  0
LINE
  8
_1-0_
  6
CONTINUOUS
 62
    6
 10
1176.0172663508235
 20
114.93860450950834
 11
1176.2904399150127
 21
115.23678496077252
  0
LINE
  8
_1-0_
  6
CONTINUOUS
 62
    6
 10
1176.2904399150127
 20
115.23678496077252
 11
1176.5140017947635
 21
115.68397058022988
  0
LINE
  8
_1-0_
  6
CONTINUOUS
 62
    6
 10
1176.5140017947635
 20
115.68397058022988
 11
1176.961001834354
 21
117.47217951594173
  0
LINE
  8
_1-0_
  6
CONTINUOUS
 62
    6
 10
1176.961001834354
 20
117.47217951594173
 11
1177.0852166253169
 21
118.24227410393789
  0
LINE
  8
_1-0_
  6
CONTINUOUS
 62
    6
 10
1177.0852166253169
 20
118.24227410393789
 11
1177.2840345228042
 21
120.0307304794724
  0
LINE
  8
_1-0_
  6
CONTINUOUS
 62
    6
 10
1177.2840345228042
 20
120.0307304794724
 11
1177.4081255938556
 21
122.14197983612884
  0
LINE
  8
_1-0_
  6
CONTINUOUS
 62
    6
 10
1177.4081255938556
 20
122.14197983612884
 11
1177.3086547851562
 21
122.61390170535527
  0
LINE
  8
_1-0_
  6
CONTINUOUS
 62
    6
 10
1177.3086547851562
 20
122.61390170535527
 11
1177.2342991184544
 21
122.73812422881257
  0
LINE
  8
_1-0_
  6
CONTINUOUS
 62
    6
 10
1177.2342991184544
 20
122.73812422881257
 11
1177.010860958615
 21
122.8871757919724
  0
LINE
  8
_1-0_
  6
CONTINUOUS
 62
    6
 10
1177.010860958615
 20
122.8871757919724
 11
1176.7125722524283
 21
122.93677974391628
  0
LINE
  8
_1-0_
  6
CONTINUOUS
 62
    6
 10
1176.7125722524283
 20
122.93677974391628
 11
1176.2408282305744
 21
122.78772818075645
  0
LINE
  8
_1-0_
  6
CONTINUOUS
 62
    6
 10
1176.2408282305744
 20
122.78772818075645
 11
1176.0172663508235
 21
122.34066628121042
  0
LINE
  8
_1-0_
  6
CONTINUOUS
 62
    6
 10
1176.0172663508235
 20
122.34066628121042
 11
1175.8184484533363
 21
120.6516188544196
  0
LINE
  8
_1-0_
  6
CONTINUOUS
 62
    6
 10
1175.8184484533363
 20
120.6516188544196
 11
1175.7440927866344
 21
120.08033443141628
  0
LINE
  8
_1-0_
  6
CONTINUOUS
 62
    6
 10
1175.7440927866344
 20
120.08033443141628
 11
1175.5452748891471
 21
118.96261782259558
  0
LINE
  8
_1-0_
  6
CONTINUOUS
 62
    6
 10
1175.5452748891471
 20
118.96261782259558
 11
1175.321589289485
 21
117.86963746354388
  0
LINE
  8
_1-0_
  6
CONTINUOUS
 62
    6
 10
1175.321589289485
 20
117.86963746354388
 11
1175.0734071473817
 21
117.39783931422878
  0
LINE
  8
_1-0_
  6
CONTINUOUS
 62
    6
 10
1175.0734071473817
 20
117.39783931422878
 11
1174.9739363386825
 21
117.37289428710937
  0
LINE
  8
_1-0_
  6
CONTINUOUS
 62
    6
 10
1174.9739363386825
 20
117.37289428710937
 11
1174.7752421611065
 21
117.4970781480944
  0
LINE
  8
_1-0_
  6
CONTINUOUS
 62
    6
 10
1174.7752421611065
 20
117.4970781480944
 11
1174.5266888592696
 21
117.86963746354388
  0
LINE
  8
_1-0_
  6
CONTINUOUS
 62
    6
 10
1174.5266888592696
 20
117.86963746354388
 11
1173.5333416913008
 21
119.75745639285527
  0
LINE
  8
_1-0_
  6
CONTINUOUS
 62
    6
 10
1173.5333416913008
 20
119.75745639285527
 11
1173.2353004249367
 21
120.45297107181035
  0
LINE
  8
_1-0_
  6
CONTINUOUS
 62
    6
 10
1173.2353004249367
 20
120.45297107181035
 11
1172.6390941722975
 21
121.96802964081634
  0
LINE
  8
_1-0_
  6
CONTINUOUS
 62
    6
 10
1172.6390941722975
 20
121.96802964081634
 11
1172.8129206476985
 21
121.4465038196461
  0
LINE
  8
_1-0_
  6
CONTINUOUS
 62
    6
 10
1172.8129206476985
 20
121.4465038196461
 11
1172.0680030616554
 21
123.60751177813555
  0
LINE
  8
_1-0_
  6
CONTINUOUS
 62
    6
 10
1172.0680030616554
 20
123.60751177813555
 11
1172.1423587283573
 21
123.40870161314271
  0
LINE
  8
_1-0_
  6
CONTINUOUS
 62
    6
 10
1172.1423587283573
 20
123.40870161314271
 11
1171.3971937024917
 21
126.04159277838633
  0
LINE
  8
_1-0_
  6
CONTINUOUS
 62
    6
 10
1171.3971937024917
 20
126.04159277838633
 11
1171.1736318227408
 21
126.98556023675039
  0
LINE
  8
_1-0_
  6
CONTINUOUS
 62
    6
 10
1171.1736318227408
 20
126.98556023675039
 11
1170.7514994853252
 21
128.97262573242187
  0
LINE
  8
_1-0_
  6
CONTINUOUS
 62
    6
 10
1170.7514994853252
 20
128.97262573242187
 11
1170.3541111301731
 21
131.08395241402292
  0
LINE
  8
_1-0_
  6
CONTINUOUS
 62
    6
 10
1170.3541111301731
 20
131.08395241402292
 11
1176.7125722524283
 21
131.08395241402292
  0
LINE
  8
_1-0_
  6
CONTINUOUS
 62
    6
 10
1176.7125722524283
 20
131.08395241402292
 11
1177.2091839764571
 21
131.18311392294396
  0
LINE
  8
_1-0_
  6
CONTINUOUS
 62
    6
 10
1177.2091839764571
 20
131.18311392294396
 11
1177.3086547851562
 21
131.25777888942409
  0
LINE
  8
_1-0_
  6
CONTINUOUS
 62
    6
 10
1177.3086547851562
 20
131.25777888942409
 11
1177.457737278294
 21
131.48141809411953
  0
LINE
  8
_1-0_
  6
CONTINUOUS
 62
    6
 10
1177.457737278294
 20
131.48141809411953
 11
1177.507596402555
 21
131.77938203553893
  0
LINE
  8
_1-0_
  6
CONTINUOUS
 62
    6
 10
1177.507596402555
 20
131.77938203553893
 11
1177.4081255938556
 21
132.20162262787687
  0
LINE
  8
_1-0_
  6
CONTINUOUS
 62
    6
 10
1177.4081255938556
 20
132.20162262787687
 11
1177.3086547851562
 21
132.30090785670924
  0
LINE
  8
_1-0_
  6
CONTINUOUS
 62
    6
 10
1177.3086547851562
 20
132.30090785670924
 11
1177.0604726430533
 21
132.42526183257235
  0
LINE
  8
_1-0_
  6
CONTINUOUS
 62
    6
 10
1177.0604726430533
 20
132.42526183257235
 11
1176.7125722524283
 21
132.47485805202174
  0
LINE
  8
_1-0_
  6
CONTINUOUS
 62
    6
 10
1176.7125722524283
 20
132.47485805202174
 11
1170.1552932326858
 21
132.47485805202174
  0
LINE
  8
_1-0_
  6
CONTINUOUS
 62
    6
 10
1170.1552932326858
 20
132.47485805202174
 11
1169.9815904771961
 21
134.38741323110222
  0
LINE
  8
_1-0_
  6
CONTINUOUS
 62
    6
 10
1169.9815904771961
 20
134.38741323110222
 11
1169.8573756862331
 21
136.15108696190092
  0
LINE
  8
_1-0_
  6
CONTINUOUS
 62
    6
 10
1169.8573756862331
 20
136.15108696190092
 11
1169.6835492108321
 21
136.69748048524596
  0
LINE
  8
_1-0_
  6
CONTINUOUS
 62
    6
 10
1169.6835492108321
 20
136.69748048524596
 11
1169.584202122044
 21
136.82166434623099
  0
LINE
  8
_1-0_
  6
CONTINUOUS
 62
    6
 10
1169.584202122044
 20
136.82166434623099
 11
1169.3105336782096
 21
136.99544442666541
  0
LINE
  8
_1-0_
  6
CONTINUOUS
 62
    6
 10
1169.3105336782096
 20
136.99544442666541
 11
1168.9628807274071
 21
137.0451798310151
  0
LINE
  8
_1-0_
  6
CONTINUOUS
 62
    6
 10
1168.9628807274071
 20
137.0451798310151
 11
1168.4911367055533
 21
136.89612826785526
  0
LINE
  8
_1-0_
  6
CONTINUOUS
 62
    6
 10
1168.4911367055533
 20
136.89612826785526
 11
1168.3667981946792
 21
136.79676571407833
  0
LINE
  8
_1-0_
  6
CONTINUOUS
 62
    6
 10
1168.3667981946792
 20
136.79676571407833
 11
1168.2178394214527
 21
136.47388767551732
  0
LINE
  8
_1-0_
  6
CONTINUOUS
 62
    6
 10
1168.2178394214527
 20
136.47388767551732
 11
1168.1683514569258
 21
136.05160068821263
  0
LINE
  8
_1-0_
  6
CONTINUOUS
 62
    6
 10
1194.4302533123946
 20
137.24385854360222
 11
1193.8587910420185
 21
137.09493070035364
  0
LINE
  8
_1-0_
  6
CONTINUOUS
 62
    6
 10
1193.8587910420185
 20
137.09493070035364
 11
1193.660220584354
 21
136.99544442666541
  0
LINE
  8
_1-0_
  6
CONTINUOUS
 62
    6
 10
1193.660220584354
 20
136.99544442666541
 11
1193.2132205447635
 21
136.67258185309336
  0
LINE
  8
_1-0_
  6
CONTINUOUS
 62
    6
 10
1193.2132205447635
 20
136.67258185309336
 11
1192.7412290830871
 21
136.25024847082187
  0
LINE
  8
_1-0_
  6
CONTINUOUS
 62
    6
 10
1192.7412290830871
 20
136.25024847082187
 11
1191.6481636665962
 21
135.33130336452174
  0
LINE
  8
_1-0_
  6
CONTINUOUS
 62
    6
 10
1191.6481636665962
 20
135.33130336452174
 11
1190.7541635874156
 21
134.56136342641472
  0
LINE
  8
_1-0_
  6
CONTINUOUS
 62
    6
 10
1190.7541635874156
 20
134.56136342641472
 11
1189.1147510425465
 21
133.36910557102513
  0
LINE
  8
_1-0_
  6
CONTINUOUS
 62
    6
 10
1189.1147510425465
 20
133.36910557102513
 11
1188.5184210699958
 21
132.97163989092851
  0
LINE
  8
_1-0_
  6
CONTINUOUS
 62
    6
 10
1188.5184210699958
 20
132.97163989092851
 11
1187.2519003378379
 21
132.22644393508503
  0
LINE
  8
_1-0_
  6
CONTINUOUS
 62
    6
 10
1187.2519003378379
 20
132.22644393508503
 11
1187.3761151288008
 21
132.30090785670924
  0
LINE
  8
_1-0_
  6
CONTINUOUS
 62
    6
 10
1187.3761151288008
 20
132.30090785670924
 11
1185.9104053394215
 21
131.50611568141628
  0
LINE
  8
_1-0_
  6
CONTINUOUS
 62
    6
 10
1185.9104053394215
 20
131.50611568141628
 11
1185.3889259132179
 21
131.25777888942409
  0
LINE
  8
_1-0_
  6
CONTINUOUS
 62
    6
 10
1185.3889259132179
 20
131.25777888942409
 11
1184.3209756387248
 21
130.76095065555057
  0
LINE
  8
_1-0_
  6
CONTINUOUS
 62
    6
 10
1184.3209756387248
 20
130.76095065555057
 11
1183.2029188001479
 21
130.28903651881862
  0
LINE
  8
_1-0_
  6
CONTINUOUS
 62
    6
 10
1183.2029188001479
 20
130.28903651881862
 11
1182.8056541649071
 21
129.91646947087469
  0
LINE
  8
_1-0_
  6
CONTINUOUS
 62
    6
 10
1182.8056541649071
 20
129.91646947087469
 11
1182.8056541649071
 21
129.39490498723211
  0
LINE
  8
_1-0_
  6
CONTINUOUS
 62
    6
 10
1182.8056541649071
 20
129.39490498723211
 11
1183.0290923247467
 21
129.04708965404615
  0
LINE
  8
_1-0_
  6
CONTINUOUS
 62
    6
 10
1183.0290923247467
 20
129.04708965404615
 11
1183.1533071157096
 21
128.99744703962995
  0
LINE
  8
_1-0_
  6
CONTINUOUS
 62
    6
 10
1183.1533071157096
 20
128.99744703962995
 11
1183.4515958218963
 21
128.94771936777474
  0
LINE
  8
_1-0_
  6
CONTINUOUS
 62
    6
 10
1183.4515958218963
 20
128.94771936777474
 11
1183.7992487726985
 21
128.99744703962995
  0
LINE
  8
_1-0_
  6
CONTINUOUS
 62
    6
 10
1183.7992487726985
 20
128.99744703962995
 11
1186.77978515625
 21
130.2641688166438
  0
LINE
  8
_1-0_
  6
CONTINUOUS
 62
    6
 10
1186.77978515625
 20
130.2641688166438
 11
1187.6989003774283
 21
130.73620667328703
  0
LINE
  8
_1-0_
  6
CONTINUOUS
 62
    6
 10
1187.6989003774283
 20
130.73620667328703
 11
1189.4624039933487
 21
131.72970849114492
  0
LINE
  8
_1-0_
  6
CONTINUOUS
 62
    6
 10
1189.4624039933487
 20
131.72970849114492
 11
1189.3131977802998
 21
131.63034593736802
  0
LINE
  8
_1-0_
  6
CONTINUOUS
 62
    6
 10
1189.3131977802998
 20
131.63034593736802
 11
1191.1018165382179
 21
132.79773609058282
  0
LINE
  8
_1-0_
  6
CONTINUOUS
 62
    6
 10
1191.1018165382179
 20
132.79773609058282
 11
1191.6732788085937
 21
133.19520177067938
  0
LINE
  8
_1-0_
  6
CONTINUOUS
 62
    6
 10
1191.6732788085937
 20
133.19520177067938
 11
1192.7412290830871
 21
134.06458158750794
  0
LINE
  8
_1-0_
  6
CONTINUOUS
 62
    6
 10
1192.7412290830871
 20
134.06458158750794
 11
1193.7345762510558
 21
134.95882910651133
  0
LINE
  8
_1-0_
  6
CONTINUOUS
 62
    6
 10
1193.7345762510558
 20
134.95882910651133
 11
1194.2314354149071
 21
135.20704217859219
  0
LINE
  8
_1-0_
  6
CONTINUOUS
 62
    6
 10
1194.2314354149071
 20
135.20704217859219
 11
1194.3805179080448
 21
135.23206453065612
  0
LINE
  8
_1-0_
  6
CONTINUOUS
 62
    6
 10
1194.3805179080448
 20
135.23206453065612
 11
1194.6784354544975
 21
135.20704217859219
  0
LINE
  8
_1-0_
  6
CONTINUOUS
 62
    6
 10
1194.6784354544975
 20
135.20704217859219
 11
1194.9271124762458
 21
135.05806794037687
  0
LINE
  8
_1-0_
  6
CONTINUOUS
 62
    6
 10
1194.9271124762458
 20
135.05806794037687
 11
1196.9386745143581
 21
133.49316571209883
  0
LINE
  8
_1-0_
  6
CONTINUOUS
 62
    6
 10
1196.9386745143581
 20
133.49316571209883
 11
1197.5598721890838
 21
133.02137529527818
  0
LINE
  8
_1-0_
  6
CONTINUOUS
 62
    6
 10
1197.5598721890838
 20
133.02137529527818
 11
1198.7769049567146
 21
132.17672399572422
  0
LINE
  8
_1-0_
  6
CONTINUOUS
 62
    6
 10
1198.7769049567146
 20
132.17672399572422
 11
1199.8947143554687
 21
131.48141809411953
  0
LINE
  8
_1-0_
  6
CONTINUOUS
 62
    6
 10
1199.8947143554687
 20
131.48141809411953
 11
1201.5837385847763
 21
130.58704685520482
  0
LINE
  8
_1-0_
  6
CONTINUOUS
 62
    6
 10
1201.5837385847763
 20
130.58704685520482
 11
1202.1549534153294
 21
130.3139351509713
  0
LINE
  8
_1-0_
  6
CONTINUOUS
 62
    6
 10
1202.1549534153294
 20
130.3139351509713
 11
1203.3472422006969
 21
129.81710691709779
  0
LINE
  8
_1-0_
  6
CONTINUOUS
 62
    6
 10
1203.3472422006969
 20
129.81710691709779
 11
1204.5641512484165
 21
129.39490498723211
  0
LINE
  8
_1-0_
  6
CONTINUOUS
 62
    6
 10
1204.5641512484165
 20
129.39490498723211
 11
1205.086001834354
 21
129.34518504787135
  0
LINE
  8
_1-0_
  6
CONTINUOUS
 62
    6
 10
1205.086001834354
 20
129.34518504787135
 11
1205.2352080474029
 21
129.39490498723211
  0
LINE
  8
_1-0_
  6
CONTINUOUS
 62
    6
 10
1205.2352080474029
 20
129.39490498723211
 11
1205.4833901895061
 21
129.5438328304806
  0
LINE
  8
_1-0_
  6
CONTINUOUS
 62
    6
 10
1205.4833901895061
 20
129.5438328304806
 11
1205.6572166649071
 21
129.79236293483424
  0
LINE
  8
_1-0_
  6
CONTINUOUS
 62
    6
 10
1205.6572166649071
 20
129.79236293483424
 11
1205.7816788956925
 21
130.33875645817938
  0
LINE
  8
_1-0_
  6
CONTINUOUS
 62
    6
 10
1205.7816788956925
 20
130.33875645817938
 11
1205.731572331609
 21
130.51270665349188
  0
LINE
  8
_1-0_
  6
CONTINUOUS
 62
    6
 10
1205.731572331609
 20
130.51270665349188
 11
1205.5330018739442
 21
130.81067059491133
  0
LINE
  8
_1-0_
  6
CONTINUOUS
 62
    6
 10
1205.5330018739442
 20
130.81067059491133
 11
1205.1604812209671
 21
131.08395241402292
  0
LINE
  8
_1-0_
  6
CONTINUOUS
 62
    6
 10
1205.1604812209671
 20
131.08395241402292
 11
1202.776151090055
 21
132.05269478462839
  0
LINE
  8
_1-0_
  6
CONTINUOUS
 62
    6
 10
1202.776151090055
 20
132.05269478462839
 11
1202.0059946421031
 21
132.40039413039753
  0
LINE
  8
_1-0_
  6
CONTINUOUS
 62
    6
 10
1202.0059946421031
 20
132.40039413039753
 11
1200.5155408704604
 21
133.14548183131862
  0
LINE
  8
_1-0_
  6
CONTINUOUS
 62
    6
 10
1200.5155408704604
 20
133.14548183131862
 11
1199.0998139252533
 21
133.96521903373099
  0
LINE
  8
_1-0_
  6
CONTINUOUS
 62
    6
 10
1199.0998139252533
 20
133.96521903373099
 11
1197.9821282464106
 21
134.68556275238859
  0
LINE
  8
_1-0_
  6
CONTINUOUS
 62
    6
 10
1197.9821282464106
 20
134.68556275238859
 11
1197.5846161713471
 21
134.98352669380807
  0
LINE
  8
_1-0_
  6
CONTINUOUS
 62
    6
 10
1197.5846161713471
 20
134.98352669380807
 11
1196.7403514965163
 21
135.65425872802734
  0
LINE
  8
_1-0_
  6
CONTINUOUS
 62
    6
 10
1196.7403514965163
 20
135.65425872802734
 11
1195.8212362753379
 21
136.44906636830925
  0
LINE
  8
_1-0_
  6
CONTINUOUS
 62
    6
 10
1195.8212362753379
 20
136.44906636830925
 11
1195.0264595650337
 21
137.0451798310151
  0
LINE
  8
_1-0_
  6
CONTINUOUS
 62
    6
 10
1195.0264595650337
 20
137.0451798310151
 11
1194.4302533123946
 21
137.24385854360222
  0
LINE
  8
_1-0_
  6
CONTINUOUS
 62
    6
 10
1200.7890855943836
 20
129.59359916480815
 11
1187.3761151288008
 21
129.59359916480815
  0
LINE
  8
_1-0_
  6
CONTINUOUS
 62
    6
 10
1187.3761151288008
 20
129.59359916480815
 11
1186.9039999472129
 21
129.49422887853672
  0
LINE
  8
_1-0_
  6
CONTINUOUS
 62
    6
 10
1186.9039999472129
 20
129.49422887853672
 11
1186.77978515625
 21
129.4197649569125
  0
LINE
  8
_1-0_
  6
CONTINUOUS
 62
    6
 10
1186.77978515625
 20
129.4197649569125
 11
1186.6307026631123
 21
129.19625720462284
  0
LINE
  8
_1-0_
  6
CONTINUOUS
 62
    6
 10
1186.6307026631123
 20
129.19625720462284
 11
1186.5810909786742
 21
128.89796076594172
  0
LINE
  8
_1-0_
  6
CONTINUOUS
 62
    6
 10
1186.5810909786742
 20
128.89796076594172
 11
1186.7054294895481
 21
128.47579749854839
  0
LINE
  8
_1-0_
  6
CONTINUOUS
 62
    6
 10
1186.7054294895481
 20
128.47579749854839
 11
1186.77978515625
 21
128.37647360724375
  0
LINE
  8
_1-0_
  6
CONTINUOUS
 62
    6
 10
1186.77978515625
 20
128.37647360724375
 11
1187.0282147381758
 21
128.25228974625873
  0
LINE
  8
_1-0_
  6
CONTINUOUS
 62
    6
 10
1187.0282147381758
 20
128.25228974625873
 11
1187.3761151288008
 21
128.20264713184258
  0
LINE
  8
_1-0_
  6
CONTINUOUS
 62
    6
 10
1187.3761151288008
 20
128.20264713184258
 11
1200.7890855943836
 21
128.20264713184258
  0
LINE
  8
_1-0_
  6
CONTINUOUS
 62
    6
 10
1200.7890855943836
 20
128.20264713184258
 11
1201.2855735985008
 21
128.30197102314719
  0
LINE
  8
_1-0_
  6
CONTINUOUS
 62
    6
 10
1201.2855735985008
 20
128.30197102314719
 11
1201.384920687289
 21
128.37647360724375
  0
LINE
  8
_1-0_
  6
CONTINUOUS
 62
    6
 10
1201.384920687289
 20
128.37647360724375
 11
1201.5340031804267
 21
128.59998135953333
  0
LINE
  8
_1-0_
  6
CONTINUOUS
 62
    6
 10
1201.5340031804267
 20
128.59998135953333
 11
1201.5837385847763
 21
128.89796076594172
  0
LINE
  8
_1-0_
  6
CONTINUOUS
 62
    6
 10
1201.5837385847763
 20
128.89796076594172
 11
1201.4843914959883
 21
129.32031734569654
  0
LINE
  8
_1-0_
  6
CONTINUOUS
 62
    6
 10
1201.4843914959883
 20
129.32031734569654
 11
1201.384920687289
 21
129.4197649569125
  0
LINE
  8
_1-0_
  6
CONTINUOUS
 62
    6
 10
1201.384920687289
 20
129.4197649569125
 11
1201.1367385451858
 21
129.5438328304806
  0
LINE
  8
_1-0_
  6
CONTINUOUS
 62
    6
 10
1201.1367385451858
 20
129.5438328304806
 11
1200.7890855943836
 21
129.59359916480815
  0
LINE
  8
_1-0_
  6
CONTINUOUS
 62
    6
 10
1204.1668866131758
 20
125.02328511830925
 11
1183.9978192303633
 21
125.02328511830925
  0
LINE
  8
_1-0_
  6
CONTINUOUS
 62
    6
 10
1183.9978192303633
 20
125.02328511830925
 11
1183.5260752085094
 21
124.92391483203789
  0
LINE
  8
_1-0_
  6
CONTINUOUS
 62
    6
 10
1183.5260752085094
 20
124.92391483203789
 11
1183.4018604175465
 21
124.84933492299675
  0
LINE
  8
_1-0_
  6
CONTINUOUS
 62
    6
 10
1183.4018604175465
 20
124.84933492299675
 11
1183.2527779244087
 21
124.62581943821263
  0
LINE
  8
_1-0_
  6
CONTINUOUS
 62
    6
 10
1183.2527779244087
 20
124.62581943821263
 11
1183.2029188001479
 21
124.32777043935417
  0
LINE
  8
_1-0_
  6
CONTINUOUS
 62
    6
 10
1183.2029188001479
 20
124.32777043935417
 11
1183.3273810309333
 21
123.90548345204948
  0
LINE
  8
_1-0_
  6
CONTINUOUS
 62
    6
 10
1183.3273810309333
 20
123.90548345204948
 11
1183.4018604175465
 21
123.80612089827252
  0
LINE
  8
_1-0_
  6
CONTINUOUS
 62
    6
 10
1183.4018604175465
 20
123.80612089827252
 11
1183.6502899994721
 21
123.68197569975983
  0
LINE
  8
_1-0_
  6
CONTINUOUS
 62
    6
 10
1183.6502899994721
 20
123.68197569975983
 11
1183.9978192303633
 21
123.63220936543236
  0
LINE
  8
_1-0_
  6
CONTINUOUS
 62
    6
 10
1183.9978192303633
 20
123.63220936543236
 11
1189.7604452597129
 21
123.63220936543236
  0
LINE
  8
_1-0_
  6
CONTINUOUS
 62
    6
 10
1189.7604452597129
 20
123.63220936543236
 11
1188.9655448294975
 21
122.04260954985749
  0
LINE
  8
_1-0_
  6
CONTINUOUS
 62
    6
 10
1188.9655448294975
 20
122.04260954985749
 11
1188.6180155986065
 21
121.49622375900684
  0
LINE
  8
_1-0_
  6
CONTINUOUS
 62
    6
 10
1188.6180155986065
 20
121.49622375900684
 11
1187.8727268528294
 21
120.3536085180334
  0
LINE
  8
_1-0_
  6
CONTINUOUS
 62
    6
 10
1187.8727268528294
 20
120.3536085180334
 11
1187.947329959354
 21
120.45297107181035
  0
LINE
  8
_1-0_
  6
CONTINUOUS
 62
    6
 10
1187.947329959354
 20
120.45297107181035
 11
1187.0034707559123
 21
119.16134293014942
  0
LINE
  8
_1-0_
  6
CONTINUOUS
 62
    6
 10
1187.0034707559123
 20
119.16134293014942
 11
1186.6556940851985
 21
118.71431969307565
  0
LINE
  8
_1-0_
  6
CONTINUOUS
 62
    6
 10
1186.6556940851985
 20
118.71431969307565
 11
1185.9104053394215
 21
117.7951735419196
  0
LINE
  8
_1-0_
  6
CONTINUOUS
 62
    6
 10
1185.9104053394215
 20
117.7951735419196
 11
1185.0907609269425
 21
116.87606605323587
  0
LINE
  8
_1-0_
  6
CONTINUOUS
 62
    6
 10
1185.0907609269425
 20
116.87606605323587
 11
1184.1966371278504
 21
116.87606605323587
  0
LINE
  8
_1-0_
  6
CONTINUOUS
 62
    6
 10
1184.1966371278504
 20
116.87606605323587
 11
1183.6003071552998
 21
116.72713820998737
  0
LINE
  8
_1-0_
  6
CONTINUOUS
 62
    6
 10
1183.6003071552998
 20
116.72713820998737
 11
1183.4515958218963
 21
116.62781431868268
  0
LINE
  8
_1-0_
  6
CONTINUOUS
 62
    6
 10
1183.4515958218963
 20
116.62781431868268
 11
1183.2775219066725
 21
116.30482029270482
  0
LINE
  8
_1-0_
  6
CONTINUOUS
 62
    6
 10
1183.2775219066725
 20
116.30482029270482
 11
1183.2029188001479
 21
115.88265702531146
  0
LINE
  8
_1-0_
  6
CONTINUOUS
 62
    6
 10
1183.2029188001479
 20
115.88265702531146
 11
1183.3520012932856
 21
115.33614751454948
  0
LINE
  8
_1-0_
  6
CONTINUOUS
 62
    6
 10
1183.3520012932856
 20
115.33614751454948
 11
1183.4515958218963
 21
115.21192499109219
  0
LINE
  8
_1-0_
  6
CONTINUOUS
 62
    6
 10
1183.4515958218963
 20
115.21192499109219
 11
1183.7743810705238
 21
115.03809078319655
  0
LINE
  8
_1-0_
  6
CONTINUOUS
 62
    6
 10
1183.7743810705238
 20
115.03809078319655
 11
1184.1966371278504
 21
114.98837084383581
  0
LINE
  8
_1-0_
  6
CONTINUOUS
 62
    6
 10
1184.1966371278504
 20
114.98837084383581
 11
1190.2570569837417
 21
115.2616062679806
  0
LINE
  8
_1-0_
  6
CONTINUOUS
 62
    6
 10
1190.2570569837417
 20
115.2616062679806
 11
1192.0705434438346
 21
115.33614751454948
  0
LINE
  8
_1-0_
  6
CONTINUOUS
 62
    6
 10
1192.0705434438346
 20
115.33614751454948
 11
1195.3739887959248
 21
115.53488035459779
  0
LINE
  8
_1-0_
  6
CONTINUOUS
 62
    6
 10
1195.3739887959248
 20
115.53488035459779
 11
1195.1008152317356
 21
115.51002038491738
  0
LINE
  8
_1-0_
  6
CONTINUOUS
 62
    6
 10
1195.1008152317356
 20
115.51002038491738
 11
1198.3049134950379
 21
115.70870682999896
  0
LINE
  8
_1-0_
  6
CONTINUOUS
 62
    6
 10
1198.3049134950379
 20
115.70870682999896
 11
1199.2737641205658
 21
115.7832944715345
  0
LINE
  8
_1-0_
  6
CONTINUOUS
 62
    6
 10
1199.2737641205658
 20
115.7832944715345
 11
1201.0372677364867
 21
115.93222231478308
  0
LINE
  8
_1-0_
  6
CONTINUOUS
 62
    6
 10
1201.0372677364867
 20
115.93222231478308
 11
1202.5772094726562
 21
116.08142852783203
  0
LINE
  8
_1-0_
  6
CONTINUOUS
 62
    6
 10
1202.5772094726562
 20
116.08142852783203
 11
1203.0489534945102
 21
115.48519907770931
  0
LINE
  8
_1-0_
  6
CONTINUOUS
 62
    6
 10
1203.0489534945102
 20
115.48519907770931
 11
1203.4717044314823
 21
114.88904695253112
  0
LINE
  8
_1-0_
  6
CONTINUOUS
 62
    6
 10
1203.4717044314823
 20
114.88904695253112
 11
1203.8935893290752
 21
114.51644897460937
  0
LINE
  8
_1-0_
  6
CONTINUOUS
 62
    6
 10
1203.8935893290752
 20
114.51644897460937
 11
1204.0429192620356
 21
114.46680636019323
  0
LINE
  8
_1-0_
  6
CONTINUOUS
 62
    6
 10
1204.0429192620356
 20
114.46680636019323
 11
1204.3904484929267
 21
114.46680636019323
  0
LINE
  8
_1-0_
  6
CONTINUOUS
 62
    6
 10
1204.3904484929267
 20
114.46680636019323
 11
1204.763092865815
 21
114.59102888365052
  0
LINE
  8
_1-0_
  6
CONTINUOUS
 62
    6
 10
1204.763092865815
 20
114.59102888365052
 11
1205.1357372387038
 21
115.01326947598841
  0
LINE
  8
_1-0_
  6
CONTINUOUS
 62
    6
 10
1205.1357372387038
 20
115.01326947598841
 11
1205.1853489231419
 21
115.16232103914831
  0
LINE
  8
_1-0_
  6
CONTINUOUS
 62
    6
 10
1205.1853489231419
 20
115.16232103914831
 11
1205.1853489231419
 21
115.51002038491738
  0
LINE
  8
_1-0_
  6
CONTINUOUS
 62
    6
 10
1205.1853489231419
 20
115.51002038491738
 11
1205.0611341321792
 21
115.88265702531146
  0
LINE
  8
_1-0_
  6
CONTINUOUS
 62
    6
 10
1205.0611341321792
 20
115.88265702531146
 11
1204.0429192620356
 21
117.57166578962995
  0
LINE
  8
_1-0_
  6
CONTINUOUS
 62
    6
 10
1204.0429192620356
 20
117.57166578962995
 11
1203.620415764886
 21
118.1180515804806
  0
LINE
  8
_1-0_
  6
CONTINUOUS
 62
    6
 10
1203.620415764886
 20
118.1180515804806
 11
1202.7014242636192
 21
119.2109468820933
  0
LINE
  8
_1-0_
  6
CONTINUOUS
 62
    6
 10
1202.7014242636192
 20
119.2109468820933
 11
1202.8007713524071
 21
119.11166165326094
  0
LINE
  8
_1-0_
  6
CONTINUOUS
 62
    6
 10
1202.8007713524071
 20
119.11166165326094
 11
1201.6582179713894
 21
120.30384218370592
  0
LINE
  8
_1-0_
  6
CONTINUOUS
 62
    6
 10
1201.6582179713894
 20
120.30384218370592
 11
1201.2362093538852
 21
120.6764788241
  0
LINE
  8
_1-0_
  6
CONTINUOUS
 62
    6
 10
1201.2362093538852
 20
120.6764788241
 11
1200.3667058171454
 21
121.47127873188744
  0
LINE
  8
_1-0_
  6
CONTINUOUS
 62
    6
 10
1200.3667058171454
 20
121.47127873188744
 11
1199.3978551916175
 21
122.2413423899058
  0
LINE
  8
_1-0_
  6
CONTINUOUS
 62
    6
 10
1199.3978551916175
 20
122.2413423899058
 11
1198.8017726588894
 21
122.3903475580989
  0
LINE
  8
_1-0_
  6
CONTINUOUS
 62
    6
 10
1198.8017726588894
 20
122.3903475580989
 11
1198.404260583826
 21
122.2413423899058
  0
LINE
  8
_1-0_
  6
CONTINUOUS
 62
    6
 10
1198.404260583826
 20
122.2413423899058
 11
1198.2304341084248
 21
121.71969284882415
  0
LINE
  8
_1-0_
  6
CONTINUOUS
 62
    6
 10
1198.2304341084248
 20
121.71969284882415
 11
1198.5038551124367
 21
121.14840842582083
  0
LINE
  8
_1-0_
  6
CONTINUOUS
 62
    6
 10
1198.5038551124367
 20
121.14840842582083
 11
1199.8947143554687
 21
119.68286875131966
  0
LINE
  8
_1-0_
  6
CONTINUOUS
 62
    6
 10
1199.8947143554687
 20
119.68286875131966
 11
1200.2919789907096
 21
119.2109468820933
  0
LINE
  8
_1-0_
  6
CONTINUOUS
 62
    6
 10
1200.2919789907096
 20
119.2109468820933
 11
1201.0372677364867
 21
118.26709541114603
  0
LINE
  8
_1-0_
  6
CONTINUOUS
 62
    6
 10
1201.0372677364867
 20
118.26709541114603
 11
1201.6830856735642
 21
117.37289428710937
  0
LINE
  8
_1-0_
  6
CONTINUOUS
 62
    6
 10
1201.6830856735642
 20
117.37289428710937
 11
1199.0751936629013
 21
117.09973618790912
  0
LINE
  8
_1-0_
  6
CONTINUOUS
 62
    6
 10
1199.0751936629013
 20
117.09973618790912
 11
1198.0069959485854
 21
117.02515627886797
  0
LINE
  8
_1-0_
  6
CONTINUOUS
 62
    6
 10
1198.0069959485854
 20
117.02515627886797
 11
1195.6472860800254
 21
116.92578599259662
  0
LINE
  8
_1-0_
  6
CONTINUOUS
 62
    6
 10
1195.6472860800254
 20
116.92578599259662
 11
1195.8708479597763
 21
116.92578599259662
  0
LINE
  8
_1-0_
  6
CONTINUOUS
 62
    6
 10
1195.8708479597763
 20
116.92578599259662
 11
1192.8900641364021
 21
116.82650849625873
  0
LINE
  8
_1-0_
  6
CONTINUOUS
 62
    6
 10
1192.8900641364021
 20
116.82650849625873
 11
1191.8219901419975
 21
116.80160213161159
  0
LINE
  8
_1-0_
  6
CONTINUOUS
 62
    6
 10
1191.8219901419975
 20
116.80160213161159
 11
1189.4872716955238
 21
116.77686588184258
  0
LINE
  8
_1-0_
  6
CONTINUOUS
 62
    6
 10
1189.4872716955238
 20
116.77686588184258
 11
1186.9786030537373
 21
116.77686588184258
  0
LINE
  8
_1-0_
  6
CONTINUOUS
 62
    6
 10
1186.9786030537373
 20
116.77686588184258
 11
1188.7172389674831
 21
118.78866762728308
  0
LINE
  8
_1-0_
  6
CONTINUOUS
 62
    6
 10
1188.7172389674831
 20
118.78866762728308
 11
1189.2137269716004
 21
119.43453969182194
  0
LINE
  8
_1-0_
  6
CONTINUOUS
 62
    6
 10
1189.2137269716004
 20
119.43453969182194
 11
1190.13296591269
 21
120.62683620968379
  0
LINE
  8
_1-0_
  6
CONTINUOUS
 62
    6
 10
1190.13296591269
 20
120.62683620968379
 11
1190.0584865260769
 21
120.5275587133459
  0
LINE
  8
_1-0_
  6
CONTINUOUS
 62
    6
 10
1190.0584865260769
 20
120.5275587133459
 11
1190.9029986407306
 21
121.76937412571263
  0
LINE
  8
_1-0_
  6
CONTINUOUS
 62
    6
 10
1190.9029986407306
 20
121.76937412571263
 11
1191.1515519425675
 21
122.16683980580925
  0
LINE
  8
_1-0_
  6
CONTINUOUS
 62
    6
 10
1191.1515519425675
 20
122.16683980580925
 11
1191.5985519821579
 21
122.91187337926914
  0
LINE
  8
_1-0_
  6
CONTINUOUS
 62
    6
 10
1191.5985519821579
 20
122.91187337926914
 11
1191.9464523727829
 21
123.63220936543236
  0
LINE
  8
_1-0_
  6
CONTINUOUS
 62
    6
 10
1191.9464523727829
 20
123.63220936543236
 11
1204.1668866131758
 21
123.63220936543236
  0
LINE
  8
_1-0_
  6
CONTINUOUS
 62
    6
 10
1204.1668866131758
 20
123.63220936543236
 11
1204.6636220571158
 21
123.73169563912057
  0
LINE
  8
_1-0_
  6
CONTINUOUS
 62
    6
 10
1204.6636220571158
 20
123.73169563912057
 11
1204.763092865815
 21
123.80612089827252
  0
LINE
  8
_1-0_
  6
CONTINUOUS
 62
    6
 10
1204.763092865815
 20
123.80612089827252
 11
1204.9120516390415
 21
124.0296750455289
  0
LINE
  8
_1-0_
  6
CONTINUOUS
 62
    6
 10
1204.9120516390415
 20
124.0296750455289
 11
1204.9616633234798
 21
124.32777043935417
  0
LINE
  8
_1-0_
  6
CONTINUOUS
 62
    6
 10
1204.9616633234798
 20
124.32777043935417
 11
1204.8624399546031
 21
124.75012701910899
  0
LINE
  8
_1-0_
  6
CONTINUOUS
 62
    6
 10
1204.8624399546031
 20
124.75012701910899
 11
1204.763092865815
 21
124.84933492299675
  0
LINE
  8
_1-0_
  6
CONTINUOUS
 62
    6
 10
1204.763092865815
 20
124.84933492299675
 11
1204.5146632838894
 21
124.9736425038931
  0
LINE
  8
_1-0_
  6
CONTINUOUS
 62
    6
 10
1204.5146632838894
 20
124.9736425038931
 11
1204.1668866131758
 21
125.02328511830925
  0
LINE
  8
_1-0_
  6
CONTINUOUS
 62
    6
 10
1226.0573928420608
 20
135.85290651063659
 11
1226.0573928420608
 21
131.97802981814823
  0
LINE
  8
_1-0_
  6
CONTINUOUS
 62
    6
 10
1226.0573928420608
 20
131.97802981814823
 11
1222.3810556772594
 21
131.97802981814823
  0
LINE
  8
_1-0_
  6
CONTINUOUS
 62
    6
 10
1222.3810556772594
 20
131.97802981814823
 11
1221.9091879354942
 21
131.87874458931589
  0
LINE
  8
_1-0_
  6
CONTINUOUS
 62
    6
 10
1221.9091879354942
 20
131.87874458931589
 11
1221.7847257047088
 21
131.80417241276922
  0
LINE
  8
_1-0_
  6
CONTINUOUS
 62
    6
 10
1221.7847257047088
 20
131.80417241276922
 11
1221.636014371305
 21
131.58065692798516
  0
LINE
  8
_1-0_
  6
CONTINUOUS
 62
    6
 10
1221.636014371305
 20
131.58065692798516
 11
1221.5864026868667
 21
131.28260019663216
  0
LINE
  8
_1-0_
  6
CONTINUOUS
 62
    6
 10
1221.5864026868667
 20
131.28260019663216
 11
1221.7104937579181
 21
130.86031320932747
  0
LINE
  8
_1-0_
  6
CONTINUOUS
 62
    6
 10
1221.7104937579181
 20
130.86031320932747
 11
1221.7847257047088
 21
130.76095065555057
  0
LINE
  8
_1-0_
  6
CONTINUOUS
 62
    6
 10
1221.7847257047088
 20
130.76095065555057
 11
1222.0334027264571
 21
130.63681318953229
  0
LINE
  8
_1-0_
  6
CONTINUOUS
 62
    6
 10
1222.0334027264571
 20
130.63681318953229
 11
1222.3810556772594
 21
130.58704685520482
  0
LINE
  8
_1-0_
  6
CONTINUOUS
 62
    6
 10
1222.3810556772594
 20
130.58704685520482
 11
1226.0573928420608
 21
130.58704685520482
  0
LINE
  8
_1-0_
  6
CONTINUOUS
 62
    6
 10
1226.0573928420608
 20
130.58704685520482
 11
1226.0573928420608
 21
116.57809437932194
  0
LINE
  8
_1-0_
  6
CONTINUOUS
 62
    6
 10
1226.0573928420608
 20
116.57809437932194
 11
1220.1955434438346
 21
116.57809437932194
  0
LINE
  8
_1-0_
  6
CONTINUOUS
 62
    6
 10
1220.1955434438346
 20
116.57809437932194
 11
1219.7234282622467
 21
116.47872409305059
  0
LINE
  8
_1-0_
  6
CONTINUOUS
 62
    6
 10
1219.7234282622467
 20
116.47872409305059
 11
1219.5993371911952
 21
116.40426790392077
  0
LINE
  8
_1-0_
  6
CONTINUOUS
 62
    6
 10
1219.5993371911952
 20
116.40426790392077
 11
1219.4501309781463
 21
116.18062869922539
  0
LINE
  8
_1-0_
  6
CONTINUOUS
 62
    6
 10
1219.4501309781463
 20
116.18062869922539
 11
1219.4006430136192
 21
115.88265702531146
  0
LINE
  8
_1-0_
  6
CONTINUOUS
 62
    6
 10
1219.4006430136192
 20
115.88265702531146
 11
1219.5246103647594
 21
115.4604164329735
  0
LINE
  8
_1-0_
  6
CONTINUOUS
 62
    6
 10
1219.5246103647594
 20
115.4604164329735
 11
1219.5993371911952
 21
115.36096882175755
  0
LINE
  8
_1-0_
  6
CONTINUOUS
 62
    6
 10
1219.5993371911952
 20
115.36096882175755
 11
1219.8476430532096
 21
115.23678496077252
  0
LINE
  8
_1-0_
  6
CONTINUOUS
 62
    6
 10
1219.8476430532096
 20
115.23678496077252
 11
1220.1955434438346
 21
115.18714234635638
  0
LINE
  8
_1-0_
  6
CONTINUOUS
 62
    6
 10
1220.1955434438346
 20
115.18714234635638
 11
1232.7141426705025
 21
115.18714234635638
  0
LINE
  8
_1-0_
  6
CONTINUOUS
 62
    6
 10
1232.7141426705025
 20
115.18714234635638
 11
1233.2107543945312
 21
115.28650490013334
  0
LINE
  8
_1-0_
  6
CONTINUOUS
 62
    6
 10
1233.2107543945312
 20
115.28650490013334
 11
1233.3102252032306
 21
115.36096882175755
  0
LINE
  8
_1-0_
  6
CONTINUOUS
 62
    6
 10
1233.3102252032306
 20
115.36096882175755
 11
1233.4591839764571
 21
115.58460029395853
  0
LINE
  8
_1-0_
  6
CONTINUOUS
 62
    6
 10
1233.4591839764571
 20
115.58460029395853
 11
1233.5089193808067
 21
115.88265702531146
  0
LINE
  8
_1-0_
  6
CONTINUOUS
 62
    6
 10
1233.5089193808067
 20
115.88265702531146
 11
1233.4094485721073
 21
116.30482029270482
  0
LINE
  8
_1-0_
  6
CONTINUOUS
 62
    6
 10
1233.4094485721073
 20
116.30482029270482
 11
1233.3102252032306
 21
116.40426790392077
  0
LINE
  8
_1-0_
  6
CONTINUOUS
 62
    6
 10
1233.3102252032306
 20
116.40426790392077
 11
1233.0616719013935
 21
116.52832804499447
  0
LINE
  8
_1-0_
  6
CONTINUOUS
 62
    6
 10
1233.0616719013935
 20
116.52832804499447
 11
1232.7141426705025
 21
116.57809437932194
  0
LINE
  8
_1-0_
  6
CONTINUOUS
 62
    6
 10
1232.7141426705025
 20
116.57809437932194
 11
1227.8455167203338
 21
116.57809437932194
  0
LINE
  8
_1-0_
  6
CONTINUOUS
 62
    6
 10
1227.8455167203338
 20
116.57809437932194
 11
1227.8455167203338
 21
130.58704685520482
  0
LINE
  8
_1-0_
  6
CONTINUOUS
 62
    6
 10
1227.8455167203338
 20
130.58704685520482
 11
1232.2175309464737
 21
130.58704685520482
  0
LINE
  8
_1-0_
  6
CONTINUOUS
 62
    6
 10
1232.2175309464737
 20
130.58704685520482
 11
1232.7141426705025
 21
130.6864867339263
  0
LINE
  8
_1-0_
  6
CONTINUOUS
 62
    6
 10
1232.7141426705025
 20
130.6864867339263
 11
1232.8132423194679
 21
130.76095065555057
  0
LINE
  8
_1-0_
  6
CONTINUOUS
 62
    6
 10
1232.8132423194679
 20
130.76095065555057
 11
1232.9624485325169
 21
130.98446614033469
  0
LINE
  8
_1-0_
  6
CONTINUOUS
 62
    6
 10
1232.9624485325169
 20
130.98446614033469
 11
1233.0120602169554
 21
131.28260019663216
  0
LINE
  8
_1-0_
  6
CONTINUOUS
 62
    6
 10
1233.0120602169554
 20
131.28260019663216
 11
1232.9127131281673
 21
131.70491811391472
  0
LINE
  8
_1-0_
  6
CONTINUOUS
 62
    6
 10
1232.9127131281673
 20
131.70491811391472
 11
1232.8132423194679
 21
131.80417241276922
  0
LINE
  8
_1-0_
  6
CONTINUOUS
 62
    6
 10
1232.8132423194679
 20
131.80417241276922
 11
1232.5651838972763
 21
131.92847999366558
  0
LINE
  8
_1-0_
  6
CONTINUOUS
 62
    6
 10
1232.5651838972763
 20
131.92847999366558
 11
1232.2175309464737
 21
131.97802981814823
  0
LINE
  8
_1-0_
  6
CONTINUOUS
 62
    6
 10
1232.2175309464737
 20
131.97802981814823
 11
1227.8455167203338
 21
131.97802981814823
  0
LINE
  8
_1-0_
  6
CONTINUOUS
 62
    6
 10
1227.8455167203338
 20
131.97802981814823
 11
1227.8455167203338
 21
135.85290651063659
  0
LINE
  8
_1-0_
  6
CONTINUOUS
 62
    6
 10
1227.8455167203338
 20
135.85290651063659
 11
1227.7211782094596
 21
136.44906636830925
  0
LINE
  8
_1-0_
  6
CONTINUOUS
 62
    6
 10
1227.7211782094596
 20
136.44906636830925
 11
1227.6220785604942
 21
136.59814886144687
  0
LINE
  8
_1-0_
  6
CONTINUOUS
 62
    6
 10
1227.6220785604942
 20
136.59814886144687
 11
1227.348904996305
 21
136.77206812678156
  0
LINE
  8
_1-0_
  6
CONTINUOUS
 62
    6
 10
1227.348904996305
 20
136.77206812678156
 11
1226.9513929212417
 21
136.84653204840586
  0
LINE
  8
_1-0_
  6
CONTINUOUS
 62
    6
 10
1226.9513929212417
 20
136.84653204840586
 11
1226.4049220729519
 21
136.69748048524596
  0
LINE
  8
_1-0_
  6
CONTINUOUS
 62
    6
 10
1226.4049220729519
 20
136.69748048524596
 11
1226.2807072819892
 21
136.59814886144687
  0
LINE
  8
_1-0_
  6
CONTINUOUS
 62
    6
 10
1226.2807072819892
 20
136.59814886144687
 11
1226.1068808065879
 21
136.27523989290808
  0
LINE
  8
_1-0_
  6
CONTINUOUS
 62
    6
 10
1226.1068808065879
 20
136.27523989290808
 11
1226.0573928420608
 21
135.85290651063659
  0
LINE
  8
_1-0_
  6
CONTINUOUS
 62
    6
 10
1215.227694124789
 20
136.34973474451016
 11
1215.227694124789
 21
133.36910557102513
  0
LINE
  8
_1-0_
  6
CONTINUOUS
 62
    6
 10
1215.227694124789
 20
133.36910557102513
 11
1211.6508277686867
 21
133.36910557102513
  0
LINE
  8
_1-0_
  6
CONTINUOUS
 62
    6
 10
1211.6508277686867
 20
133.36910557102513
 11
1211.1788363070102
 21
133.26966569230365
  0
LINE
  8
_1-0_
  6
CONTINUOUS
 62
    6
 10
1211.1788363070102
 20
133.26966569230365
 11
1211.0547452359588
 21
133.19520177067938
  0
LINE
  8
_1-0_
  6
CONTINUOUS
 62
    6
 10
1211.0547452359588
 20
133.19520177067938
 11
1210.9056627428211
 21
132.97163989092851
  0
LINE
  8
_1-0_
  6
CONTINUOUS
 62
    6
 10
1210.9056627428211
 20
132.97163989092851
 11
1210.8560510583827
 21
132.67367594950912
  0
LINE
  8
_1-0_
  6
CONTINUOUS
 62
    6
 10
1210.8560510583827
 20
132.67367594950912
 11
1210.9803895692567
 21
132.25131163725985
  0
LINE
  8
_1-0_
  6
CONTINUOUS
 62
    6
 10
1210.9803895692567
 20
132.25131163725985
 11
1211.0547452359588
 21
132.15198001346073
  0
LINE
  8
_1-0_
  6
CONTINUOUS
 62
    6
 10
1211.0547452359588
 20
132.15198001346073
 11
1211.3029273780617
 21
132.02779615247573
  0
LINE
  8
_1-0_
  6
CONTINUOUS
 62
    6
 10
1211.3029273780617
 20
132.02779615247573
 11
1211.6508277686867
 21
131.97802981814823
  0
LINE
  8
_1-0_
  6
CONTINUOUS
 62
    6
 10
1211.6508277686867
 20
131.97802981814823
 11
1218.1086359797298
 21
131.97802981814823
  0
LINE
  8
_1-0_
  6
CONTINUOUS
 62
    6
 10
1218.1086359797298
 20
131.97802981814823
 11
1218.5558834591429
 21
131.85389235212995
  0
LINE
  8
_1-0_
  6
CONTINUOUS
 62
    6
 10
1218.5558834591429
 20
131.85389235212995
 11
1218.6304865656673
 21
131.77938203553893
  0
LINE
  8
_1-0_
  6
CONTINUOUS
 62
    6
 10
1218.6304865656673
 20
131.77938203553893
 11
1218.6802219700169
 21
131.53101431356896
  0
LINE
  8
_1-0_
  6
CONTINUOUS
 62
    6
 10
1218.6802219700169
 20
131.53101431356896
 11
1218.605495143581
 21
131.18311392294396
  0
LINE
  8
_1-0_
  6
CONTINUOUS
 62
    6
 10
1218.605495143581
 20
131.18311392294396
 11
1217.3884623759502
 21
129.22095479191961
  0
LINE
  8
_1-0_
  6
CONTINUOUS
 62
    6
 10
1217.3884623759502
 20
129.22095479191961
 11
1216.8669829497467
 21
128.57520644729206
  0
LINE
  8
_1-0_
  6
CONTINUOUS
 62
    6
 10
1216.8669829497467
 20
128.57520644729206
 11
1215.6499501821158
 21
127.28353964315879
  0
LINE
  8
_1-0_
  6
CONTINUOUS
 62
    6
 10
1215.6499501821158
 20
127.28353964315879
 11
1215.7741649730788
 21
127.40772350414382
  0
LINE
  8
_1-0_
  6
CONTINUOUS
 62
    6
 10
1215.7741649730788
 20
127.40772350414382
 11
1214.2340995169975
 21
126.04159277838633
  0
LINE
  8
_1-0_
  6
CONTINUOUS
 62
    6
 10
1214.2340995169975
 20
126.04159277838633
 11
1213.6628846864442
 21
125.59449221636797
  0
LINE
  8
_1-0_
  6
CONTINUOUS
 62
    6
 10
1213.6628846864442
 20
125.59449221636797
 11
1212.4208604967273
 21
124.70040707974817
  0
LINE
  8
_1-0_
  6
CONTINUOUS
 62
    6
 10
1212.4208604967273
 20
124.70040707974817
 11
1211.0547452359588
 21
123.83090354300833
  0
LINE
  8
_1-0_
  6
CONTINUOUS
 62
    6
 10
1211.0547452359588
 20
123.83090354300833
 11
1210.6076214764571
 21
123.48328152218379
  0
LINE
  8
_1-0_
  6
CONTINUOUS
 62
    6
 10
1210.6076214764571
 20
123.48328152218379
 11
1210.5331420898437
 21
123.35909766119883
  0
LINE
  8
_1-0_
  6
CONTINUOUS
 62
    6
 10
1210.5331420898437
 20
123.35909766119883
 11
1210.4834066854942
 21
123.06100226737357
  0
LINE
  8
_1-0_
  6
CONTINUOUS
 62
    6
 10
1210.4834066854942
 20
123.06100226737357
 11
1210.5580097920185
 21
122.73812422881257
  0
LINE
  8
_1-0_
  6
CONTINUOUS
 62
    6
 10
1210.5580097920185
 20
122.73812422881257
 11
1210.9056627428211
 21
122.4400752299541
  0
LINE
  8
_1-0_
  6
CONTINUOUS
 62
    6
 10
1210.9056627428211
 20
122.4400752299541
 11
1211.0547452359588
 21
122.3903475580989
  0
LINE
  8
_1-0_
  6
CONTINUOUS
 62
    6
 10
1211.0547452359588
 20
122.3903475580989
 11
1211.3776542044975
 21
122.3903475580989
  0
LINE
  8
_1-0_
  6
CONTINUOUS
 62
    6
 10
1211.3776542044975
 20
122.3903475580989
 11
1211.7501748574748
 21
122.53943778373099
  0
LINE
  8
_1-0_
  6
CONTINUOUS
 62
    6
 10
1211.7501748574748
 20
122.53943778373099
 11
1212.9921990471919
 21
123.28451001966322
  0
LINE
  8
_1-0_
  6
CONTINUOUS
 62
    6
 10
1212.9921990471919
 20
123.28451001966322
 11
1213.4140839447846
 21
123.58260541348841
  0
LINE
  8
_1-0_
  6
CONTINUOUS
 62
    6
 10
1213.4140839447846
 20
123.58260541348841
 11
1214.3084551836994
 21
124.2036252408414
  0
LINE
  8
_1-0_
  6
CONTINUOUS
 62
    6
 10
1214.3084551836994
 20
124.2036252408414
 11
1215.227694124789
 21
124.92391483203789
  0
LINE
  8
_1-0_
  6
CONTINUOUS
 62
    6
 10
1215.227694124789
 20
124.92391483203789
 11
1215.227694124789
 21
115.08785711752402
  0
LINE
  8
_1-0_
  6
CONTINUOUS
 62
    6
 10
1215.227694124789
 20
115.08785711752402
 11
1215.3271649334883
 21
114.59102888365052
  0
LINE
  8
_1-0_
  6
CONTINUOUS
 62
    6
 10
1215.3271649334883
 20
114.59102888365052
 11
1215.4013968802788
 21
114.49170499234583
  0
LINE
  8
_1-0_
  6
CONTINUOUS
 62
    6
 10
1215.4013968802788
 20
114.49170499234583
 11
1215.6248350401183
 21
114.34253744176914
  0
LINE
  8
_1-0_
  6
CONTINUOUS
 62
    6
 10
1215.6248350401183
 20
114.34253744176914
 11
1215.9232474662163
 21
114.29293348982526
  0
LINE
  8
_1-0_
  6
CONTINUOUS
 62
    6
 10
1215.9232474662163
 20
114.29293348982526
 11
1216.3456272434544
 21
114.39221871865762
  0
LINE
  8
_1-0_
  6
CONTINUOUS
 62
    6
 10
1216.3456272434544
 20
114.39221871865762
 11
1216.4447268924198
 21
114.49170499234583
  0
LINE
  8
_1-0_
  6
CONTINUOUS
 62
    6
 10
1216.4447268924198
 20
114.49170499234583
 11
1216.5688179634712
 21
114.73999538937129
  0
LINE
  8
_1-0_
  6
CONTINUOUS
 62
    6
 10
1216.5688179634712
 20
114.73999538937129
 11
1216.6185533678211
 21
115.08785711752402
  0
LINE
  8
_1-0_
  6
CONTINUOUS
 62
    6
 10
1216.6185533678211
 20
115.08785711752402
 11
1216.6185533678211
 21
124.22836149061048
  0
LINE
  8
_1-0_
  6
CONTINUOUS
 62
    6
 10
1216.6185533678211
 20
124.22836149061048
 11
1218.0095363307644
 21
123.35909766119883
  0
LINE
  8
_1-0_
  6
CONTINUOUS
 62
    6
 10
1218.0095363307644
 20
123.35909766119883
 11
1218.4069246859165
 21
123.06100226737357
  0
LINE
  8
_1-0_
  6
CONTINUOUS
 62
    6
 10
1218.4069246859165
 20
123.06100226737357
 11
1219.1520897117821
 21
122.48971011187578
  0
LINE
  8
_1-0_
  6
CONTINUOUS
 62
    6
 10
1219.1520897117821
 20
122.48971011187578
 11
1219.7980313687713
 21
121.94332432102513
  0
LINE
  8
_1-0_
  6
CONTINUOUS
 62
    6
 10
1219.7980313687713
 20
121.94332432102513
 11
1220.3693699192356
 21
121.71969284882415
  0
LINE
  8
_1-0_
  6
CONTINUOUS
 62
    6
 10
1220.3693699192356
 20
121.71969284882415
 11
1220.5430726747254
 21
121.69479421667148
  0
LINE
  8
_1-0_
  6
CONTINUOUS
 62
    6
 10
1220.5430726747254
 20
121.69479421667148
 11
1220.8909730653504
 21
121.7445141560323
  0
LINE
  8
_1-0_
  6
CONTINUOUS
 62
    6
 10
1220.8909730653504
 20
121.7445141560323
 11
1221.1890143317146
 21
121.94332432102513
  0
LINE
  8
_1-0_
  6
CONTINUOUS
 62
    6
 10
1221.1890143317146
 20
121.94332432102513
 11
1221.3379731049408
 21
122.4400752299541
  0
LINE
  8
_1-0_
  6
CONTINUOUS
 62
    6
 10
1221.3379731049408
 20
122.4400752299541
 11
1221.3379731049408
 21
122.61390170535527
  0
LINE
  8
_1-0_
  6
CONTINUOUS
 62
    6
 10
1221.3379731049408
 20
122.61390170535527
 11
1221.2386260161529
 21
122.93677974391628
  0
LINE
  8
_1-0_
  6
CONTINUOUS
 62
    6
 10
1221.2386260161529
 20
122.93677974391628
 11
1220.9901964342273
 21
123.23487513774154
  0
LINE
  8
_1-0_
  6
CONTINUOUS
 62
    6
 10
1220.9901964342273
 20
123.23487513774154
 11
1219.6738165778083
 21
124.22836149061048
  0
LINE
  8
_1-0_
  6
CONTINUOUS
 62
    6
 10
1219.6738165778083
 20
124.22836149061048
 11
1219.1520897117821
 21
124.55135551658842
  0
LINE
  8
_1-0_
  6
CONTINUOUS
 62
    6
 10
1219.1520897117821
 20
124.55135551658842
 11
1217.9847923485008
 21
125.22193290091849
  0
LINE
  8
_1-0_
  6
CONTINUOUS
 62
    6
 10
1217.9847923485008
 20
125.22193290091849
 11
1216.6185533678211
 21
125.91737025492904
  0
LINE
  8
_1-0_
  6
CONTINUOUS
 62
    6
 10
1216.6185533678211
 20
125.91737025492904
 11
1216.6185533678211
 21
126.11618041992187
  0
LINE
  8
_1-0_
  6
CONTINUOUS
 62
    6
 10
1216.6185533678211
 20
126.11618041992187
 11
1218.1833628061656
 21
127.73060154270482
  0
LINE
  8
_1-0_
  6
CONTINUOUS
 62
    6
 10
1218.1833628061656
 20
127.73060154270482
 11
1218.6552305479308
 21
128.30197102314719
  0
LINE
  8
_1-0_
  6
CONTINUOUS
 62
    6
 10
1218.6552305479308
 20
128.30197102314719
 11
1219.4999901024071
 21
129.46936890885638
  0
LINE
  8
_1-0_
  6
CONTINUOUS
 62
    6
 10
1219.4999901024071
 20
129.46936890885638
 11
1220.1955434438346
 21
130.6864867339263
  0
LINE
  8
_1-0_
  6
CONTINUOUS
 62
    6
 10
1220.1955434438346
 20
130.6864867339263
 11
1220.4934609902873
 21
131.35718783816776
  0
LINE
  8
_1-0_
  6
CONTINUOUS
 62
    6
 10
1220.4934609902873
 20
131.35718783816776
 11
1220.5430726747254
 21
131.58065692798516
  0
LINE
  8
_1-0_
  6
CONTINUOUS
 62
    6
 10
1220.5430726747254
 20
131.58065692798516
 11
1220.61767578125
 21
132.02779615247573
  0
LINE
  8
_1-0_
  6
CONTINUOUS
 62
    6
 10
1220.61767578125
 20
132.02779615247573
 11
1220.5925606392525
 21
132.47485805202174
  0
LINE
  8
_1-0_
  6
CONTINUOUS
 62
    6
 10
1220.5925606392525
 20
132.47485805202174
 11
1220.2946430927998
 21
133.02137529527818
  0
LINE
  8
_1-0_
  6
CONTINUOUS
 62
    6
 10
1220.2946430927998
 20
133.02137529527818
 11
1220.1208166173988
 21
133.14548183131862
  0
LINE
  8
_1-0_
  6
CONTINUOUS
 62
    6
 10
1220.1208166173988
 20
133.14548183131862
 11
1219.6738165778083
 21
133.31943202663112
  0
LINE
  8
_1-0_
  6
CONTINUOUS
 62
    6
 10
1219.6738165778083
 20
133.31943202663112
 11
1219.1024780273437
 21
133.36910557102513
  0
LINE
  8
_1-0_
  6
CONTINUOUS
 62
    6
 10
1219.1024780273437
 20
133.36910557102513
 11
1216.6185533678211
 21
133.36910557102513
  0
LINE
  8
_1-0_
  6
CONTINUOUS
 62
    6
 10
1216.6185533678211
 20
133.36910557102513
 11
1216.6185533678211
 21
136.34973474451016
  0
LINE
  8
_1-0_
  6
CONTINUOUS
 62
    6
 10
1216.6185533678211
 20
136.34973474451016
 11
1216.5192062790329
 21
136.82166434623099
  0
LINE
  8
_1-0_
  6
CONTINUOUS
 62
    6
 10
1216.5192062790329
 20
136.82166434623099
 11
1216.4447268924198
 21
136.94580181224927
  0
LINE
  8
_1-0_
  6
CONTINUOUS
 62
    6
 10
1216.4447268924198
 20
136.94580181224927
 11
1216.221165012669
 21
137.09493070035364
  0
LINE
  8
_1-0_
  6
CONTINUOUS
 62
    6
 10
1216.221165012669
 20
137.09493070035364
 11
1215.9232474662163
 21
137.14449598982526
  0
LINE
  8
_1-0_
  6
CONTINUOUS
 62
    6
 10
1215.9232474662163
 20
137.14449598982526
 11
1215.5008676889781
 21
137.02035852380703
  0
LINE
  8
_1-0_
  6
CONTINUOUS
 62
    6
 10
1215.5008676889781
 20
137.02035852380703
 11
1215.4013968802788
 21
136.94580181224927
  0
LINE
  8
_1-0_
  6
CONTINUOUS
 62
    6
 10
1215.4013968802788
 20
136.94580181224927
 11
1215.2773058092273
 21
136.69748048524596
  0
LINE
  8
_1-0_
  6
CONTINUOUS
 62
    6
 10
1215.2773058092273
 20
136.69748048524596
 11
1215.227694124789
 21
136.34973474451016
  0
LINE
  8
_1-0_
  6
CONTINUOUS
 62
    6
 10
1273.7825960726352
 20
153.50204673973295
 11
1273.7825960726352
 21
53.164193436906118
  0
LINE
  8
_1-0_
  6
CONTINUOUS
 62
    6
 10
1630.9852393897804
 20
153.50204673973295
 11
1630.9852393897804
 21
53.164193436906118
  0
LINE
  8
_1-0_
  6
CONTINUOUS
 62
    6
 10
605.33016307933917
 20
134.72847809662687
 11
617.7872735100824
 21
117.49671472085488
  0
LINE
  8
_1-0_
  6
CONTINUOUS
 62
    6
 10
602.28096214500636
 20
139.93311186094544
 11
605.33016307933917
 21
139.93311186094544
  0
LINE
  8
_1-0_
  6
CONTINUOUS
 62
    6
 10
605.33016307933917
 20
139.93311186094544
 11
620.25857873865084
 21
119.2832921002362
  0
LINE
  8
_1-0_
  6
CONTINUOUS
 62
    6
 10
617.7872735100824
 20
117.49671472085488
 11
620.02567600559541
 21
114.40063940512168
  0
LINE
  8
_1-0_
  6
CONTINUOUS
 62
    6
 10
620.02567600559541
 20
114.40063940512168
 11
623.3076559530723
 21
114.40063940512168
  0
LINE
  8
_1-0_
  6
CONTINUOUS
 62
    6
 10
623.3076559530723
 20
139.93311186094544
 11
623.3076559530723
 21
114.40063940512168
  0
LINE
  8
_1-0_
  6
CONTINUOUS
 62
    6
 10
602.28096214500636
 20
139.93311186094544
 11
602.28096214500636
 21
114.40063940512168
  0
LINE
  8
_1-0_
  6
CONTINUOUS
 62
    6
 10
605.33016307933917
 20
134.72847809662687
 11
605.33016307933917
 21
114.40063940512168
  0
LINE
  8
_1-0_
  6
CONTINUOUS
 62
    6
 10
605.33016307933917
 20
114.40063940512168
 11
602.28096214500636
 21
114.40063940512168
  0
LINE
  8
_1-0_
  6
CONTINUOUS
 62
    6
 10
620.25857873865084
 20
139.93311186094544
 11
623.3076559530723
 21
139.93311186094544
  0
LINE
  8
_1-0_
  6
CONTINUOUS
 62
    6
 10
643.83346970016896
 20
139.93311186094544
 11
643.83346970016896
 21
114.40063940512168
  0
LINE
  8
_1-0_
  6
CONTINUOUS
 62
    6
 10
643.83346970016896
 20
114.40063940512168
 11
647.39109761006137
 21
114.40063940512168
  0
LINE
  8
_1-0_
  6
CONTINUOUS
 62
    6
 10
643.83346970016896
 20
139.93311186094544
 11
647.39109761006137
 21
139.93311186094544
  0
LINE
  8
_1-0_
  6
CONTINUOUS
 62
    6
 10
647.39109761006137
 20
139.93311186094544
 11
647.39109761006137
 21
114.40063940512168
  0
LINE
  8
_1-0_
  6
CONTINUOUS
 62
    6
 10
663.24716516443209
 20
139.93311186094544
 11
666.29642795872041
 21
139.93311186094544
  0
LINE
  8
_1-0_
  6
CONTINUOUS
 62
    6
 10
663.24716516443209
 20
139.93311186094544
 11
663.24716516443209
 21
114.40063940512168
  0
LINE
  8
_1-0_
  6
CONTINUOUS
 62
    6
 10
666.29642795872041
 20
114.40063940512168
 11
663.24716516443209
 21
114.40063940512168
  0
LINE
  8
_1-0_
  6
CONTINUOUS
 62
    6
 10
671.56887569943001
 20
139.93311186094544
 11
663.24716516443209
 21
139.93311186094544
  0
LINE
  8
_1-0_
  6
CONTINUOUS
 62
    6
 10
671.56887569943001
 20
114.40063940512168
 11
663.24716516443209
 21
114.40063940512168
  0
LINE
  8
_1-0_
  6
CONTINUOUS
 62
    6
 10
671.56887569943001
 20
136.88392639160156
 11
666.29642795872041
 21
136.88392639160156
  0
LINE
  8
_1-0_
  6
CONTINUOUS
 62
    6
 10
671.56887569943001
 20
117.44979394448769
 11
666.29642795872041
 21
117.44979394448769
  0
LINE
  8
_1-0_
  6
CONTINUOUS
 62
    6
 10
706.76236539273646
 20
139.93311186094544
 11
706.06390463339324
 21
139.93311186094544
  0
LINE
  8
_1-0_
  6
CONTINUOUS
 62
    6
 10
695.89994275892104
 20
124.56470180202174
 11
695.89994275892104
 21
129.76913452148437
  0
LINE
  8
_1-0_
  6
CONTINUOUS
 62
    6
 10
716.92657470703125
 20
124.56470180202174
 11
716.92657470703125
 21
129.76913452148437
  0
LINE
  8
_1-0_
  6
CONTINUOUS
 62
    6
 10
713.87737377269855
 20
124.56470180202174
 11
713.87737377269855
 21
129.76913452148437
  0
LINE
  8
_1-0_
  6
CONTINUOUS
 62
    6
 10
698.94889625343126
 20
124.56470180202174
 11
698.94889625343126
 21
129.76913452148437
  0
LINE
  8
_1-0_
  6
CONTINUOUS
 62
    6
 10
737.80195906355573
 20
139.93311186094544
 11
737.10349830421251
 21
139.93311186094544
  0
LINE
  8
_1-0_
  6
CONTINUOUS
 62
    6
 10
726.93922712996198
 20
124.56470180202174
 11
726.93922712996198
 21
129.76913452148437
  0
LINE
  8
_1-0_
  6
CONTINUOUS
 62
    6
 10
737.80195906355573
 20
114.40063940512168
 11
737.10349830421251
 21
114.40063940512168
  0
LINE
  8
_1-0_
  6
CONTINUOUS
 62
    6
 10
729.98848992425053
 20
124.56470180202174
 11
729.98848992425053
 21
129.76913452148437
  0
LINE
  8
_1-0_
  6
CONTINUOUS
 62
    6
 10
743.83151080157302
 20
133.54577760438659
 11
746.50670644399281
 21
135.01635886527396
  0
LINE
  8
_1-0_
  6
CONTINUOUS
 62
    6
 10
743.83151080157302
 20
120.78797366168047
 11
746.36343878668708
 21
119.0868016835806
  0
LINE
  8
_1-0_
  6
CONTINUOUS
 62
    6
 10
765.33669136665958
 20
139.93311186094544
 11
764.63816874736062
 21
139.93311186094544
  0
LINE
  8
_1-0_
  6
CONTINUOUS
 62
    6
 10
765.33669136665958
 20
114.40063940512168
 11
764.63816874736062
 21
114.40063940512168
  0
LINE
  8
_1-0_
  6
CONTINUOUS
 62
    6
 10
775.50083882099887
 20
124.56470180202174
 11
775.50083882099887
 21
129.76913452148437
  0
LINE
  8
_1-0_
  6
CONTINUOUS
 62
    6
 10
772.45163788666605
 20
124.56470180202174
 11
772.45163788666605
 21
129.76913452148437
  0
LINE
  8
_1-0_
  6
CONTINUOUS
 62
    6
 10
623.17886352539062
 20
114.40063940512168
 11
623.3076559530723
 21
114.52930811289193
  0
LINE
  8
_1-0_
  6
CONTINUOUS
 62
    6
 10
605.21151568438563
 20
114.40063940512168
 11
605.33016307933917
 21
114.51929453256966
  0
LINE
  8
_1-0_
  6
CONTINUOUS
 62
    6
 10
666.29642795872041
 20
115.92513934986016
 11
663.24716516443209
 21
115.92513934986016
  0
LINE
  8
_1-0_
  6
CONTINUOUS
 62
    6
 10
737.80195906355573
 20
138.40844953382339
 11
737.10349830421251
 21
138.40844953382339
  0
LINE
  8
_1-0_
  6
CONTINUOUS
 62
    6
 10
620.25857873865084
 20
139.93311186094544
 11
620.25857873865084
 21
119.2832921002362
  0
LINE
  8
_1-0_
  6
CONTINUOUS
 62
    6
 10
666.29642795872041
 20
136.88392639160156
 11
666.29642795872041
 21
117.44979394448769
  0
LINE
  8
_1-0_
  6
CONTINUOUS
 62
    6
 10
754.4743305927999
 20
124.56470180202174
 11
754.4743305927999
 21
129.76913452148437
  0
LINE
  8
_1-0_
  6
CONTINUOUS
 62
    6
 10
757.52346966717698
 20
129.76913452148437
 11
757.52346966717698
 21
124.21676274892448
  0
LINE
  8
_1-0_
  6
CONTINUOUS
 62
    6
 10
2040.3635385874156
 20
1413.7453233873523
 11
2040.3635385874156
 21
53.164193436906118
  0
LINE
  8
_1-0_
  6
CONTINUOUS
 62
    6
 10
79.762845425992452
 20
1413.7453233873523
 11
2039.6854297534842
 21
1413.7453233873523
  0
LINE
  8
_1-0_
  6
CONTINUOUS
 62
    6
 10
79.762845425992452
 20
1413.7453233873523
 11
79.762845425992452
 21
53.164193436906118
  0
LINE
  8
_1-0_
  6
CONTINUOUS
 62
    6
 10
2040.3635385874156
 20
53.164193436906118
 11
79.762845425992452
 21
53.164193436906118
  0
LINE
  8
_1-0_
  6
CONTINUOUS
 62
    6
 10
79.762845425992452
 20
153.50204673973295
 11
2036.3501883841852
 21
153.50204673973295
  0
LINE
  8
_0-0_
  6
CONTINUOUS
 62
    7
 10
616.28877794420396
 20
429.61423719251479
 11
616.28877794420396
 21
443.81425187394427
  0
LINE
  8
_0-0_
  6
CONTINUOUS
 62
    7
 10
636.66056040171031
 20
431.21424494562922
 11
628.28880516258448
 21
431.21424494562922
  0
LINE
  8
_0-0_
  6
CONTINUOUS
 62
    7
 10
636.66056040171031
 20
442.21424412082979
 11
628.28880516258448
 21
442.21424412082979
  0
LINE
  8
_0-0_
  6
CONTINUOUS
 62
    7
 10
628.28880516258448
 20
435.38063667915964
 11
628.28880516258448
 21
443.81425187394427
  0
LINE
  8
_0-0_
  6
CONTINUOUS
 62
    7
 10
628.28880516258448
 20
429.61423719251479
 11
628.28880516258448
 21
435.38063667915964
  0
LINE
  8
_0-0_
  6
CONTINUOUS
 62
    7
 10
628.28880516258448
 20
429.61423719251479
 11
604.41673897408145
 21
429.61423719251479
  0
LINE
  8
_0-0_
  6
CONTINUOUS
 62
    7
 10
628.28880516258448
 20
443.81425187394427
 11
604.28881258577917
 21
443.81425187394427
  0
LINE
  8
_0-0_
  6
CONTINUOUS
 62
    7
 10
709.28878784179687
 20
431.21424494562922
 11
691.66055627771334
 21
431.21424494562922
  0
LINE
  8
_0-0_
  6
CONTINUOUS
 62
    7
 10
709.28878784179687
 20
431.21424494562922
 11
709.28878784179687
 21
442.21424412082979
  0
LINE
  8
_0-0_
  6
CONTINUOUS
 62
    7
 10
709.28878784179687
 20
442.21424412082979
 11
691.66055627771334
 21
442.21424412082979
  0
LINE
  8
_0-0_
  6
CONTINUOUS
 62
    7
 10
584.88656121331292
 20
383.61953529151714
 11
584.88656121331292
 21
462.01923473461255
  0
LINE
  8
_0-0_
  6
CONTINUOUS
 62
    7
 10
584.88656121331292
 20
462.01923473461255
 11
583.26057227882177
 21
462.01923473461255
  0
LINE
  8
_0-0_
  6
CONTINUOUS
 62
    7
 10
594.86679901947855
 20
460.91426127665756
 11
602.21081295528938
 21
460.91426127665756
  0
LINE
  8
_0-0_
  6
CONTINUOUS
 62
    7
 10
607.89685635953344
 20
451.06436239706505
 11
602.21081295528938
 21
460.91426127665756
  0
LINE
  8
_0-0_
  6
CONTINUOUS
 62
    7
 10
587.18880318306583
 20
447.61378314044032
 11
594.86679901947855
 21
460.91426127665756
  0
LINE
  8
_0-0_
  6
CONTINUOUS
 62
    7
 10
587.18880318306583
 20
412.51425871977938
 11
587.18880318306583
 21
447.61378314044032
  0
LINE
  8
_0-0_
  6
CONTINUOUS
 62
    7
 10
592.87484658731
 20
462.06414506242083
 11
585.1968507508974
 21
448.7636669262036
  0
LINE
  8
_0-0_
  6
CONTINUOUS
 62
    7
 10
602.21081295528938
 20
463.21424535802896
 11
594.86679901947855
 21
463.21424535802896
  0
LINE
  8
_0-0_
  6
CONTINUOUS
 62
    7
 10
604.20270352750219
 20
462.06414506242083
 11
609.88880879170188
 21
452.21424618282839
  0
LINE
  8
_0-0_
  6
CONTINUOUS
 62
    7
 10
607.89685635953344
 20
451.06436239706505
 11
609.88880879170188
 21
452.21424618282839
  0
LINE
  8
_0-0_
  6
CONTINUOUS
 62
    7
 10
592.78879938898865
 20
419.31424527554901
 11
592.78879938898865
 21
454.11424379091011
  0
LINE
  8
_0-0_
  6
CONTINUOUS
 62
    7
 10
604.28881258577917
 20
419.31424527554901
 11
604.28881258577917
 21
454.11424379091011
  0
LINE
  8
_0-0_
  6
CONTINUOUS
 62
    7
 10
611.78654851140209
 20
391.61954312711151
 11
624.78654191300677
 21
391.61954312711151
  0
LINE
  8
_0-0_
  6
CONTINUOUS
 62
    7
 10
624.78654191300677
 20
385.61952951792131
 11
624.78654191300677
 21
391.61954312711151
  0
LINE
  8
_0-0_
  6
CONTINUOUS
 62
    7
 10
621.53654356260563
 20
385.61952951792131
 11
621.53654356260563
 21
391.61954312711151
  0
LINE
  8
_0-0_
  6
CONTINUOUS
 62
    7
 10
615.03654686180323
 20
385.61952951792131
 11
615.03654686180323
 21
391.61954312711151
  0
LINE
  8
_0-0_
  6
CONTINUOUS
 62
    7
 10
611.78654851140209
 20
385.61952951792131
 11
611.78654851140209
 21
391.61954312711151
  0
LINE
  8
_0-0_
  6
CONTINUOUS
 62
    7
 10
610.28656830658792
 20
383.61953529151714
 11
610.28656830658792
 21
385.61952951792131
  0
LINE
  8
_0-0_
  6
CONTINUOUS
 62
    7
 10
610.28656830658792
 20
385.61952951792131
 11
626.28652211782094
 21
385.61952951792131
  0
LINE
  8
_0-0_
  6
CONTINUOUS
 62
    7
 10
583.26057227882177
 20
447.61378314044032
 11
583.26057227882177
 21
423.96178374419344
  0
LINE
  8
_0-0_
  6
CONTINUOUS
 62
    7
 10
636.66489059860646
 20
426.98271467879016
 11
678.1353099926099
 21
426.98271467879016
  0
LINE
  8
_0-0_
  6
CONTINUOUS
 62
    7
 10
661.16489719700166
 20
445.18271781302786
 11
661.16489719700166
 21
430.98270313159844
  0
LINE
  8
_0-0_
  6
CONTINUOUS
 62
    7
 10
667.16487987621417
 20
445.18271781302786
 11
667.16487987621417
 21
430.98270313159844
  0
LINE
  8
_0-0_
  6
CONTINUOUS
 62
    7
 10
687.66489802180115
 20
445.18271781302786
 11
687.66489802180115
 21
430.84429148081193
  0
LINE
  8
_0-0_
  6
CONTINUOUS
 62
    7
 10
636.66489059860646
 20
445.18271781302786
 11
636.66489059860646
 21
426.98271467879016
  0
LINE
  8
_0-0_
  6
CONTINUOUS
 62
    7
 10
640.66487905141469
 20
445.18271781302786
 11
640.66487905141469
 21
433.8530360041438
  0
LINE
  8
_0-0_
  6
CONTINUOUS
 62
    7
 10
687.66489802180115
 20
445.18271781302786
 11
691.66488647460937
 21
445.18271781302786
  0
LINE
  8
_0-0_
  6
CONTINUOUS
 62
    7
 10
691.66488647460937
 20
445.18271781302786
 11
691.66488647460937
 21
426.98271467879016
  0
LINE
  8
_0-0_
  6
CONTINUOUS
 62
    7
 10
636.66489059860646
 20
445.18271781302786
 11
640.66487905141469
 21
445.18271781302786
  0
LINE
  8
_0-0_
  6
CONTINUOUS
 62
    7
 10
661.16489719700166
 20
445.18271781302786
 11
667.16487987621417
 21
445.18271781302786
  0
LINE
  8
_0-0_
  6
CONTINUOUS
 62
    7
 10
640.66487905141469
 20
445.18271781302786
 11
687.66489802180115
 21
445.18271781302786
  0
LINE
  8
_0-0_
  6
CONTINUOUS
 62
    7
 10
640.66487905141469
 20
430.98270313159844
 11
688.03042849978897
 21
430.98270313159844
  0
LINE
  8
_0-0_
  6
CONTINUOUS
 62
    7
 10
640.66487905141469
 20
433.8530360041438
 11
640.66487905141469
 21
431.14514737515839
  0
LINE
  8
_0-0_
  6
CONTINUOUS
 62
    7
 10
678.1353099926099
 20
426.98271467879016
 11
691.66488647460937
 21
426.98271467879016
  0
LINE
  8
_0-0_
  6
CONTINUOUS
 62
    7
 10
634.86055941195104
 20
423.90920278188344
 11
691.66055627771334
 21
423.90920278188344
  0
LINE
  8
_0-0_
  6
CONTINUOUS
 62
    7
 10
691.66055627771334
 20
423.90920278188344
 11
691.66055627771334
 21
442.80918224437818
  0
LINE
  8
_0-0_
  6
CONTINUOUS
 62
    7
 10
691.66055627771334
 20
422.30919502876901
 11
691.66055627771334
 21
423.90920278188344
  0
LINE
  8
_0-0_
  6
CONTINUOUS
 62
    7
 10
634.86055941195104
 20
390.61954601390943
 11
653.26055578283353
 21
390.61954601390943
  0
LINE
  8
_0-0_
  6
CONTINUOUS
 62
    7
 10
633.26055165883656
 20
392.21952283704604
 11
633.26055165883656
 21
422.30919502876901
  0
LINE
  8
_0-0_
  6
CONTINUOUS
 62
    7
 10
653.26055578283353
 20
390.61954601390943
 11
653.26055578283353
 21
392.21952283704604
  0
LINE
  8
_0-0_
  6
CONTINUOUS
 62
    7
 10
636.66056040171031
 20
442.80918224437818
 11
636.66056040171031
 21
423.67837235734271
  0
LINE
  8
_0-0_
  6
CONTINUOUS
 62
    7
 10
634.86055941195104
 20
392.21952283704604
 11
634.86055941195104
 21
422.30919502876901
  0
LINE
  8
_0-0_
  6
CONTINUOUS
 62
    7
 10
638.43829180743251
 20
382.01952753840266
 11
638.43829180743251
 21
382.77777594489021
  0
LINE
  8
_0-0_
  6
CONTINUOUS
 62
    7
 10
653.43827943544125
 20
384.05957608609589
 11
653.43827943544125
 21
384.57261162835204
  0
LINE
  8
_0-0_
  6
CONTINUOUS
 62
    7
 10
584.88656121331292
 20
383.61953529151714
 11
653.43827943544125
 21
384.60218068715687
  0
LINE
  8
_0-0_
  6
CONTINUOUS
 62
    7
 10
653.43827943544125
 20
383.02905108477614
 11
653.43827943544125
 21
384.60218068715687
  0
LINE
  8
_0-0_
  6
CONTINUOUS
 62
    7
 10
584.88656121331292
 20
382.01952753840266
 11
653.43827943544125
 21
383.02905108477614
  0
LINE
  8
_0-0_
  6
CONTINUOUS
 62
    7
 10
587.18880318306583
 20
412.51425871977938
 11
608.26053103885135
 21
412.51425871977938
  0
LINE
  8
_0-0_
  6
CONTINUOUS
 62
    7
 10
608.26053103885135
 20
410.21424370843016
 11
608.26053103885135
 21
412.51425871977938
  0
LINE
  8
_0-0_
  6
CONTINUOUS
 62
    7
 10
587.18880318306583
 20
410.21424370843016
 11
608.26053103885135
 21
410.21424370843016
  0
LINE
  8
_0-0_
  6
CONTINUOUS
 62
    7
 10
626.28652211782094
 20
385.61952951792131
 11
626.28652211782094
 21
384.16099548339844
  0
LINE
  8
_0-0_
  6
CONTINUOUS
 62
    4
 10
740.73276004275772
 20
392.21952283704604
 11
740.73276004275772
 21
422.30919502876901
  0
LINE
  8
_0-0_
  6
CONTINUOUS
 62
    7
 10
634.86055941195104
 20
422.30919502876901
 11
796.97453266865512
 21
422.30919502876901
  0
LINE
  8
_0-0_
  6
CONTINUOUS
 62
    7
 10
634.86055941195104
 20
392.21952283704604
 11
796.60071295660896
 21
392.21952283704604
  0
LINE
  8
_0-0_
  6
CONTINUOUS
 62
    4
 10
658.26057227882188
 20
578.55420499234594
 11
573.30012965846709
 21
578.55420499234594
  0
LINE
  8
_0-0_
  6
CONTINUOUS
 62
    4
 10
658.26057227882188
 20
578.55420499234594
 11
658.26057227882188
 21
544.23510577227626
  0
LINE
  8
_0-0_
  6
CONTINUOUS
 62
    4
 10
573.30012965846709
 20
578.55420499234594
 11
573.30012965846709
 21
544.23510577227626
  0
LINE
  8
_0-0_
  6
CONTINUOUS
 62
    7
 10
660.65492372255062
 20
388.01907719792547
 11
678.8674844277873
 21
357.3179812044711
  0
LINE
  8
_0-0_
  6
CONTINUOUS
 62
    7
 10
678.8674844277873
 20
357.3179812044711
 11
762.71741712415542
 21
357.3179812044711
  0
LINE
  8
_0-0_
  6
CONTINUOUS
 62
    7
 10
656.4779539366026
 20
382.01952753840266
 11
568.26052279085729
 21
382.01952753840266
  0
LINE
  8
_0-0_
  6
CONTINUOUS
 62
    7
 10
643.26052279085729
 20
232.01952753840266
 11
418.26055372083511
 21
232.01952753840266
  0
LINE
  8
_0-0_
  6
CONTINUOUS
 62
    7
 10
658.26057227882188
 20
247.01953063140047
 11
658.26057227882188
 21
382.01952753840266
  0
LINE
  8
_0-0_
  6
CONTINUOUS
 62
    7
 10
643.26052279085729
 20
232.01952753840266
 11
658.26057227882188
 21
247.01953063140047
  0
LINE
  8
_0-0_
  6
CONTINUOUS
 62
    7
 10
418.26055372083511
 20
443.47832138473927
 11
568.26052279085729
 21
593.47829045476146
  0
LINE
  8
_0-0_
  6
CONTINUOUS
 62
    7
 10
418.26055372083511
 20
436.407233573295
 11
568.26052279085729
 21
586.40726450327281
  0
LINE
  8
_0-0_
  6
CONTINUOUS
 62
    7
 10
418.26055372083511
 20
429.3361766918286
 11
568.26052279085729
 21
579.33617669182854
  0
LINE
  8
_0-0_
  6
CONTINUOUS
 62
    7
 10
560.35512975744302
 20
232.01952753840266
 11
658.26057227882188
 21
329.92490819982584
  0
LINE
  8
_0-0_
  6
CONTINUOUS
 62
    7
 10
567.4262175688873
 20
232.01952753840266
 11
658.26057227882188
 21
322.85385131835937
  0
LINE
  8
_0-0_
  6
CONTINUOUS
 62
    7
 10
574.49730538033145
 20
232.01952753840266
 11
658.26057227882188
 21
315.78279443689297
  0
LINE
  8
_0-0_
  6
CONTINUOUS
 62
    4
 10
418.26055372083511
 20
665.06683762009084
 11
568.26052279085729
 21
665.06683762009084
  0
LINE
  8
_0-0_
  6
CONTINUOUS
 62
    4
 10
418.26055372083511
 20
622.88923521299625
 11
493.26055372083511
 21
622.88923521299625
  0
LINE
  8
_0-0_
  6
CONTINUOUS
 62
    4
 10
493.26055372083511
 20
622.88923521299625
 11
568.26052279085729
 21
622.88923521299625
  0
LINE
  8
_0-0_
  6
CONTINUOUS
 62
    4
 10
493.26055372083511
 20
170.03514057881119
 11
658.26057227882188
 21
170.03514057881119
  0
LINE
  8
_0-0_
  6
CONTINUOUS
 62
    4
 10
658.26057227882188
 20
170.03514057881119
 11
658.26057227882188
 21
209.99285208212365
  0
LINE
  8
_0-0_
  6
CONTINUOUS
 62
    4
 10
493.26055372083511
 20
153.50204673973295
 11
493.26055372083511
 21
209.99285208212365
  0
ARC
  8
_1-0_
  6
CONTINUOUS
 62
    6
 10
671.56887569943001
 20
127.22812085538294
 40
12.705004537427749
 50
0
 51
90
  0
ARC
  8
_1-0_
  6
CONTINUOUS
 62
    6
 10
671.56887569943001
 20
127.10567680565092
 40
12.705004537427749
 50
270
 51
0
  0
ARC
  8
_1-0_
  6
CONTINUOUS
 62
    6
 10
671.56887569943001
 20
127.22812085538294
 40
9.6558007034095557
 50
0
 51
90
  0
ARC
  8
_1-0_
  6
CONTINUOUS
 62
    6
 10
671.56887569943001
 20
127.10567680565092
 40
9.6558007034095557
 50
270
 51
0
  0
ARC
  8
_1-0_
  6
CONTINUOUS
 62
    6
 10
706.06390463339324
 20
129.76913452148437
 40
10.164000536944416
 50
90
 51
180
  0
ARC
  8
_1-0_
  6
CONTINUOUS
 62
    6
 10
706.76236539273646
 20
129.76913452148437
 40
10.164000536944416
 50
0
 51
90
  0
ARC
  8
_1-0_
  6
CONTINUOUS
 62
    6
 10
706.06390463339324
 20
124.56470180202174
 40
10.164000536944416
 50
180
 51
270
  0
ARC
  8
_1-0_
  6
CONTINUOUS
 62
    6
 10
706.76236539273646
 20
124.56470180202174
 40
10.164000536944416
 50
270
 51
0
  0
ARC
  8
_1-0_
  6
CONTINUOUS
 62
    6
 10
706.06390463339324
 20
129.76913452148437
 40
7.1148000858925489
 50
87.185699462890625
 51
180
  0
ARC
  8
_1-0_
  6
CONTINUOUS
 62
    6
 10
706.76236539273646
 20
129.76913452148437
 40
7.1148000858925489
 50
0
 51
92.814300537109375
  0
ARC
  8
_1-0_
  6
CONTINUOUS
 62
    6
 10
706.06390463339324
 20
124.56470180202174
 40
7.1148000858925489
 50
180
 51
272.81430053710937
  0
ARC
  8
_1-0_
  6
CONTINUOUS
 62
    6
 10
706.76236539273646
 20
124.56470180202174
 40
7.1148000858925489
 50
267.18569946289062
 51
0.0000000000000127
  0
ARC
  8
_1-0_
  6
CONTINUOUS
 62
    6
 10
737.10349830421251
 20
129.76913452148437
 40
10.164000536944416
 50
90
 51
180
  0
ARC
  8
_1-0_
  6
CONTINUOUS
 62
    6
 10
737.10349830421251
 20
124.56470180202174
 40
10.164000536944416
 50
180
 51
270
  0
ARC
  8
_1-0_
  6
CONTINUOUS
 62
    6
 10
737.10349830421251
 20
129.76913452148437
 40
7.1148000858925489
 50
87.185699462890625
 51
180
  0
ARC
  8
_1-0_
  6
CONTINUOUS
 62
    6
 10
737.10349830421251
 20
124.56470180202174
 40
7.1148000858925489
 50
180
 51
272.81430053710937
  0
ARC
  8
_1-0_
  6
CONTINUOUS
 62
    6
 10
737.80195906355573
 20
129.76913452148437
 40
10.164000536944416
 50
31.082351684570316
 51
90
  0
ARC
  8
_1-0_
  6
CONTINUOUS
 62
    6
 10
737.80195906355573
 20
129.76913452148437
 40
7.1148000858925489
 50
32.061737060546882
 51
92.814300537109389
  0
ARC
  8
_1-0_
  6
CONTINUOUS
 62
    6
 10
737.80195906355573
 20
124.56470180202174
 40
7.1148000858925489
 50
267.18569946289062
 51
327.93844604492187
  0
ARC
  8
_1-0_
  6
CONTINUOUS
 62
    6
 10
737.80195906355573
 20
124.56470180202174
 40
10.164000536944416
 50
270
 51
327.38772583007812
  0
ARC
  8
_1-0_
  6
CONTINUOUS
 62
    6
 10
764.63816874736062
 20
129.76913452148437
 40
10.164000536944416
 50
90
 51
180
  0
ARC
  8
_1-0_
  6
CONTINUOUS
 62
    6
 10
765.33669136665958
 20
129.76913452148437
 40
10.164000536944416
 50
0
 51
90
  0
ARC
  8
_1-0_
  6
CONTINUOUS
 62
    6
 10
764.63816874736062
 20
124.56470180202174
 40
10.164000536944416
 50
180
 51
270
  0
ARC
  8
_1-0_
  6
CONTINUOUS
 62
    6
 10
765.33669136665958
 20
124.56470180202174
 40
10.164000536944416
 50
270
 51
0
  0
ARC
  8
_1-0_
  6
CONTINUOUS
 62
    6
 10
764.63816874736062
 20
129.76913452148437
 40
7.1148000858925489
 50
87.185699462890625
 51
180
  0
ARC
  8
_1-0_
  6
CONTINUOUS
 62
    6
 10
765.33669136665958
 20
129.76913452148437
 40
7.1148000858925489
 50
0
 51
92.814300537109375
  0
ARC
  8
_1-0_
  6
CONTINUOUS
 62
    6
 10
764.63816874736062
 20
124.56470180202174
 40
7.1148000858925489
 50
180
 51
272.81430053710937
  0
ARC
  8
_1-0_
  6
CONTINUOUS
 62
    6
 10
765.33669136665958
 20
124.56470180202174
 40
7.1148000858925489
 50
267.18569946289062
 51
0.0000000000000127
  0
ARC
  8
_0-0_
  6
CONTINUOUS
 62
    7
 10
587.18880318306583
 20
447.61378314044032
 40
2.3000000296412288
 50
150.00332641601565
 51
179.99998474121097
  0
ARC
  8
_0-0_
  6
CONTINUOUS
 62
    7
 10
587.18880318306583
 20
412.51425871977938
 40
2.3000000296412288
 50
179.99998474121097
 51
270
  0
ARC
  8
_0-0_
  6
CONTINUOUS
 62
    7
 10
594.86679901947855
 20
460.91426127665756
 40
2.3000000296412288
 50
90
 51
150.00334167480469
  0
ARC
  8
_0-0_
  6
CONTINUOUS
 62
    7
 10
602.21081295528938
 20
460.91426127665756
 40
2.3000000296412288
 50
29.996658325195352
 51
89.99998474121098
  0
ARC
  8
_0-0_
  6
CONTINUOUS
 62
    7
 10
598.53880598738397
 20
454.05702333192573
 40
5.7502844849148316
 50
0.5702514648437691
 51
179.42973327636722
  0
ARC
  8
_0-0_
  6
CONTINUOUS
 62
    7
 10
598.53880598738397
 20
419.38615747400235
 40
5.7504497669838575
 50
180.71636962890628
 51
359.28364562988281
  0
ARC
  8
_0-0_
  6
CONTINUOUS
 62
    7
 10
584.88656121331292
 20
383.61953529151714
 40
1.6000000206199851
 50
180
 51
270
  0
ARC
  8
_0-0_
  6
CONTINUOUS
 62
    7
 10
634.86055941195104
 20
422.30919502876901
 40
1.6000000206199851
 50
90
 51
180
  0
ARC
  8
_0-0_
  6
CONTINUOUS
 62
    7
 10
634.86055941195104
 20
392.21952283704604
 40
1.6000000206199851
 50
180
 51
270
  0
ARC
  8
_0-0_
  6
CONTINUOUS
 62
    7
 10
686.51498330606
 20
342.3967722299937
 40
49.721072171185476
 50
94.455978393554688
 51
119.31524658203124
  0
ARC
  8
_0-0_
  6
CONTINUOUS
 62
    7
 10
684.03204840582771
 20
333.32392718340895
 40
58.70887524372823
 50
91.596969604492188
 51
112.15451049804687
  0
ARC
  8
_0-0_
  6
CONTINUOUS
 62
    7
 10
653.18378757786104
 20
383.78566020243881
 40
0.8270845219895646
 50
287.91964721679687
 51
72.080337524414077
  0
ARC
  8
_0-0_
  6
CONTINUOUS
 62
    7
 10
653.84828722154782
 20
228.83494609111068
 40
156.7851092364337
 50
89.1484375
 51
97.479873657226577
  0
ARC
  8
_0-0_
  6
CONTINUOUS
 62
    7
 10
647.49625953468126
 20
418.11533747492609
 40
33.651866139592357
 50
284.95133972167969
 51
295.32809448242187
  0
ARC
  8
_0-0_
  6
CONTINUOUS
 62
    7
 10
596.98401786185605
 20
479.00591669855891
 40
113.78000620249155
 50
301.52603149414063
 51
304.95407104492187
  0
TEXT
  8
_1-0_
 62
    7
 10
1279.4736996212521
 20
136.13180212072422
 40
15
 41
1
 50
0
  1
設計管理
  0
TEXT
  8
_1-0_
 62
    7
 10
1280.1928875897383
 20
83.522221848771352
 40
15
 41
1
 50
0
  1
施工
  0
TEXT
  8
_1-0_
 62
    7
 10
1638.1752715239656
 20
134.537562808475
 40
15
 41
1
 50
0
  1
工事名称
  0
TEXT
  8
_1-0_
 62
    7
 10
1640.3402173841323
 20
87.767546885722396
 40
15
 41
1
 50
0
  1
図面名
  0
TEXT
  8
_0-0_
 62
    3
 10
473.26055372083516
 20
667.5668458680849
 40
25
 41
1
 50
0
  1
150
  0
TEXT
  8
_0-0_
 62
    3
 10
517.6355382558462
 20
625.38924346099031
 40
25
 41
1
 50
0
  1
75
  0
TEXT
  8
_0-0_
 62
    3
 10
442.6355382558462
 20
625.38924346099031
 40
25
 41
1
 50
0
  1
75
  0
TEXT
  8
_0-0_
 62
    3
 10
555.76054753483959
 20
172.53513336181641
 40
25
 41
1
 50
0
  1
165
  0
TEXT
  8
_0-0_
 62
    3
 10
686.35376595162052
 20
357.3179812044711
 40
25
 41
1
 50
0
  1
アルマシール
  0
TEXT
  8
_0-0_
 62
    7
 10
736.13712207691094
 20
394.74659893963792
 40
20
 41
1
 50
90
  1
30
  0
POINT
  8
_0-0_
 62
    4
 10
740.73276004275772
 20
392.21952283704604
  0
POINT
  8
_0-0_
 62
    4
 10
740.73276004275772
 20
422.30919502876901
  0
POINT
  8
_0-0_
 62
    4
 10
658.26057227882188
 20
578.55420499234594
  0
POINT
  8
_0-0_
 62
    4
 10
573.30012965846709
 20
578.55420499234594
  0
POINT
  8
_0-0_
 62
    4
 10
418.26055372083511
 20
665.06683762009084
  0
POINT
  8
_0-0_
 62
    4
 10
568.26052279085729
 20
665.06683762009084
  0
POINT
  8
_0-0_
 62
    4
 10
418.26055372083511
 20
622.88923521299625
  0
POINT
  8
_0-0_
 62
    4
 10
493.26055372083511
 20
622.88923521299625
  0
POINT
  8
_0-0_
 62
    4
 10
568.26052279085729
 20
622.88923521299625
  0
POINT
  8
_0-0_
 62
    4
 10
493.26055372083511
 20
170.03514057881119
  0
POINT
  8
_0-0_
 62
    4
 10
658.26057227882188
 20
170.03514057881119
  0
ARC
  8
_0-0_
  6
CONTINUOUS
 62
    7
 10
527.02554440083634
 20
500.02883000393581
 40
88.622756958007813
 50
341.92012023925781
 51
18.079864501953146
  0
ARC
  8
_0-0_
  6
CONTINUOUS
 62
    7
 10
609.67254185261868
 20
465.12423176785205
 40
1.6000000238418577
 50
269.99999999999994
 51
359.99999999999994
  0
ARC
  8
_0-0_
  6
CONTINUOUS
 62
    7
 10
583.37397503438149
 20
463.52423138638198
 40
1.6000000238418577
 50
89.999999999999972
 51
179.99999999999997
  0
LINE
  8
_0-0_
  6
CONTINUOUS
 62
    7
 10
625.06564616742298
 20
509.32423253079151
 11
615.15947746815857
 21
509.32423253079151
  0
LINE
  8
_0-0_
  6
CONTINUOUS
 62
    7
 10
625.06564616742298
 20
489.32423253079139
 11
625.06564616742298
 21
509.32423253079151
  0
LINE
  8
_0-0_
  6
CONTINUOUS
 62
    7
 10
625.06564616742298
 20
489.32423253079139
 11
614.99943947377335
 21
489.32423253079139
  0
LINE
  8
_0-0_
  6
CONTINUOUS
 62
    7
 10
609.67254185261868
 20
483.0260223867482
 11
609.67254185261868
 21
505.62975926418983
  0
LINE
  8
_0-0_
  6
CONTINUOUS
 62
    7
 10
609.67254185261868
 20
465.12423176785205
 11
609.67254185261868
 21
483.0260223867482
  0
LINE
  8
_0-0_
  6
CONTINUOUS
 62
    7
 10
574.67254375996754
 20
469.32423253079122
 11
574.67254375996754
 21
529.32423253079128
  0
LINE
  8
_0-0_
  6
CONTINUOUS
 62
    7
 10
583.37397503438149
 20
465.12423176785205
 11
609.67254185261868
 21
465.12423176785205
  0
LINE
  8
_0-0_
  6
CONTINUOUS
 62
    7
 10
611.27254223408829
 20
465.12423176785205
 11
611.27254223408829
 21
535.12423558254932
  0
LINE
  8
_0-0_
  6
CONTINUOUS
 62
    7
 10
609.67254185261868
 20
529.32423253079128
 11
574.67254375996754
 21
529.32423253079128
  0
LINE
  8
_0-0_
  6
CONTINUOUS
 62
    7
 10
609.67254185261868
 20
469.32423253079122
 11
574.67254375996754
 21
469.32423253079122
  0
LINE
  8
_0-0_
  6
CONTINUOUS
 62
    7
 10
609.67254185261868
 20
463.52423138638198
 11
583.26057227882177
 21
463.52423138638198
  0
LINE
  8
_0-0_
  6
CONTINUOUS
 62
    7
 10
583.26057227882177
 20
383.61953529151714
 11
583.26057227882177
 21
463.52423138638198
  0
LINE
  8
_0-0_
  6
CONTINUOUS
 62
    7
 10
580.14984295522618
 20
438.0124375626848
 11
581.64982316004034
 21
438.0124375626848
  0
LINE
  8
_0-0_
  6
CONTINUOUS
 62
    7
 10
578.64986275041201
 20
427.01302605706297
 11
574.64987429760367
 21
427.01302605706297
  0
LINE
  8
_0-0_
  6
CONTINUOUS
 62
    7
 10
578.64986275041201
 20
433.01303966625318
 11
574.64987429760367
 21
433.01303966625318
  0
LINE
  8
_0-0_
  6
CONTINUOUS
 62
    7
 10
580.14984295522618
 20
422.01245282147386
 11
580.14984295522618
 21
438.0124375626848
  0
LINE
  8
_0-0_
  6
CONTINUOUS
 62
    7
 10
578.64986275041201
 20
424.51246106946792
 11
578.64986275041201
 21
435.51246024466849
  0
LINE
  8
_0-0_
  6
CONTINUOUS
 62
    7
 10
574.64987429760367
 20
435.51246024466849
 11
578.59709620823503
 21
435.51246024466849
  0
LINE
  8
_0-0_
  6
CONTINUOUS
 62
    7
 10
574.64987429760367
 20
424.51246106946792
 11
574.64987429760367
 21
435.51246024466849
  0
LINE
  8
_0-0_
  6
CONTINUOUS
 62
    7
 10
574.64987429760367
 20
424.51246106946792
 11
578.59709620823503
 21
424.51246106946792
  0
LINE
  8
_0-0_
  6
CONTINUOUS
 62
    7
 10
578.59709620823503
 20
435.51246024466849
 11
580.14984295522618
 21
438.0124375626848
  0
LINE
  8
_0-0_
  6
CONTINUOUS
 62
    7
 10
578.59709620823503
 20
424.51246106946792
 11
580.19667094165982
 21
422.0182985872836
  0
LINE
  8
_0-0_
  6
CONTINUOUS
 62
    7
 10
580.16957628108128
 20
422.01245282147386
 11
581.64982316004034
 21
422.01245282147386
  0
LINE
  8
_0-0_
  6
CONTINUOUS
 62
    7
 10
609.67254185261868
 20
535.12423558254932
 11
611.27254223408829
 21
535.12423558254932
  0
LINE
  8
_0-0_
  6
CONTINUOUS
 62
    7
 10
609.67254185261868
 20
505.62975926418983
 11
609.67254185261868
 21
535.12423558254932
  0
LINE
  8
_0-0_
  6
CONTINUOUS
 62
    7
 10
618.28654521220437
 20
392.04062599440766
 11
618.28654521220437
 21
363.68198251873719
  0
LINE
  8
_0-0_
  6
CONTINUOUS
 62
    4
 10
658.26057227882188
 20
333.50547728180584
 11
618.28654521220437
 21
333.50547728180584
  0
POINT
  8
_0-0_
 62
    4
 10
658.26057227882188
 20
333.50547728180584
  0
POINT
  8
_0-0_
 62
    4
 10
618.28654521220437
 20
333.50547728180584
  0
LINE
  8
_0-0_
  6
CONTINUOUS
 62
    4
 10
658.26057227882188
 20
333.50547728180584
 11
658.26057227882188
 21
356.77410782594569
  0
LINE
  8
_0-0_
  6
CONTINUOUS
 62
    4
 10
618.28654521220437
 20
333.50547728180584
 11
618.28654521220437
 21
356.77410782594569
  0
TEXT
  8
_0-0_
 62
    3
 10
625.14855874551313
 20
336.00547728180584
 40
25
 41
1
 50
0
  1
40
  0
LINE
  8
_0-0_
  6
CONTINUOUS
 62
    7
 10
581.66057227882186
 20
383.61953529151714
 11
581.66057227882186
 21
463.52423138638198
  0
LINE
  8
_0-0_
  6
CONTINUOUS
 62
    7
 10
581.66057227882186
 20
383.61953529151714
 11
583.25352024387666
 21
383.61953529151714
  0
TEXT
  8
_0-0_
 62
    3
 10
1735.9408033826639
 20
65.438689217758963
 40
30
 41
1
 50
0
  1
平面袖壁詳細図
  0
LINE
  8
_0-0_
  6
CONTINUOUS
 62
    7
 10
459.37541691478452
 20
995.96253499902912
 11
369.37542928677573
 21
1025.9625102550469
  0
LINE
  8
_0-0_
  6
CONTINUOUS
 62
    7
 10
459.37541691478452
 20
995.96253499902912
 11
421.37540289319452
 21
905.96254737102026
  0
LINE
  8
_0-0_
  6
CONTINUOUS
 62
    7
 10
421.37540289319452
 20
995.96253499902912
 11
383.37538887160463
 21
905.96254737102026
  0
LINE
  8
_0-0_
  6
CONTINUOUS
 62
    7
 10
421.37540289319452
 20
905.96254737102026
 11
421.37540289319452
 21
995.96253499902912
  0
LINE
  8
_0-0_
  6
CONTINUOUS
 62
    7
 10
383.37538887160463
 20
905.96254737102026
 11
383.37538887160463
 21
995.96253499902912
  0
LINE
  8
_0-0_
  6
CONTINUOUS
 62
    7
 10
459.37541691478452
 20
905.96254737102026
 11
459.37541691478452
 21
1034.9625152038434
  0
LINE
  8
_0-0_
  6
CONTINUOUS
 62
    7
 10
499.98233318774686
 20
1010.2609688699118
 11
583.83226588411515
 21
1010.2609688699118
  0
LINE
  8
_0-0_
  6
CONTINUOUS
 62
    7
 10
481.7697724825104
 20
1040.9620648633661
 11
499.98233318774686
 21
1010.2609688699118
  0
LINE
  8
_0-0_
  6
CONTINUOUS
 62
    4
 10
394.41497841842676
 20
1231.4971617278088
 11
394.41497841842676
 21
1197.1781243676949
  0
LINE
  8
_0-0_
  6
CONTINUOUS
 62
    4
 10
479.3754210387815
 20
1231.4971617278088
 11
479.3754210387815
 21
1197.1781243676949
  0
LINE
  8
_0-0_
  6
CONTINUOUS
 62
    4
 10
479.3754210387815
 20
1231.4971617278088
 11
394.41497841842676
 21
1231.4971617278088
  0
LINE
  8
_0-0_
  6
CONTINUOUS
 62
    7
 10
455.97540817191083
 20
1045.16260329242
 11
617.71562357652431
 21
1045.16260329242
  0
LINE
  8
_0-0_
  6
CONTINUOUS
 62
    7
 10
455.97540817191083
 20
1075.2522754841432
 11
618.08938142861473
 21
1075.2522754841432
  0
LINE
  8
_0-0_
  6
CONTINUOUS
 62
    4
 10
561.84760880271733
 20
1045.16260329242
 11
561.84760880271733
 21
1075.2522754841432
  0
LINE
  8
_0-0_
  6
CONTINUOUS
 62
    7
 10
408.30365194302573
 20
1063.1572932338263
 11
429.37537979881108
 21
1063.1572932338263
  0
LINE
  8
_0-0_
  6
CONTINUOUS
 62
    7
 10
429.37537979881108
 20
1063.1572932338263
 11
429.37537979881108
 21
1065.4572463852201
  0
LINE
  8
_0-0_
  6
CONTINUOUS
 62
    7
 10
408.30365194302573
 20
1065.4572463852201
 11
429.37537979881108
 21
1065.4572463852201
  0
LINE
  8
_0-0_
  6
CONTINUOUS
 62
    7
 10
406.00140997327259
 20
1034.9625152038434
 11
474.55312819540103
 21
1035.9720696801949
  0
LINE
  8
_0-0_
  6
CONTINUOUS
 62
    7
 10
474.55312819540103
 20
1035.9720696801949
 11
474.55312819540103
 21
1037.5451683525976
  0
LINE
  8
_0-0_
  6
CONTINUOUS
 62
    7
 10
406.00140997327259
 20
1036.5625848169136
 11
474.55312819540103
 21
1037.5451683525976
  0
LINE
  8
_0-0_
  6
CONTINUOUS
 62
    7
 10
474.55312819540103
 20
1037.0026565414701
 11
474.55312819540103
 21
1037.5155992937928
  0
LINE
  8
_0-0_
  6
CONTINUOUS
 62
    7
 10
459.55314056739218
 20
1034.9625152038434
 11
459.55314056739218
 21
1035.7207945403088
  0
LINE
  8
_0-0_
  6
CONTINUOUS
 62
    7
 10
455.97540817191083
 20
1045.16260329242
 11
455.97540817191083
 21
1075.2522754841432
  0
LINE
  8
_0-0_
  6
CONTINUOUS
 62
    7
 10
457.77540916167004
 20
1095.7521699098188
 11
457.77540916167004
 21
1076.6213600227834
  0
LINE
  8
_0-0_
  6
CONTINUOUS
 62
    7
 10
474.37540454279338
 20
1043.5625336793501
 11
474.37540454279338
 21
1045.16260329242
  0
LINE
  8
_0-0_
  6
CONTINUOUS
 62
    7
 10
454.37540041879635
 20
1045.16260329242
 11
454.37540041879635
 21
1075.2522754841432
  0
LINE
  8
_0-0_
  6
CONTINUOUS
 62
    7
 10
455.97540817191083
 20
1043.5625336793501
 11
474.37540454279338
 21
1043.5625336793501
  0
LINE
  8
_0-0_
  6
CONTINUOUS
 62
    7
 10
512.77540503767307
 20
1075.2522754841432
 11
512.77540503767307
 21
1076.8522213773019
  0
LINE
  8
_0-0_
  6
CONTINUOUS
 62
    7
 10
512.77540503767307
 20
1076.8522213773019
 11
512.77540503767307
 21
1095.7521699098188
  0
LINE
  8
_0-0_
  6
CONTINUOUS
 62
    7
 10
455.97540817191083
 20
1076.8522213773019
 11
512.77540503767307
 21
1076.8522213773019
  0
LINE
  8
_0-0_
  6
CONTINUOUS
 62
    7
 10
499.25022061252525
 20
1079.9257951341642
 11
512.7797352345691
 21
1079.9257951341642
  0
LINE
  8
_0-0_
  6
CONTINUOUS
 62
    7
 10
461.77972781137447
 20
1086.7960855295403
 11
461.77972781137447
 21
1084.0882278305326
  0
LINE
  8
_0-0_
  6
CONTINUOUS
 62
    7
 10
461.77972781137447
 20
1083.9257835869726
 11
509.14527725974858
 21
1083.9257835869726
  0
LINE
  8
_0-0_
  6
CONTINUOUS
 62
    7
 10
461.77972781137447
 20
1098.1257364084465
 11
508.77974678176082
 21
1098.1257364084465
  0
LINE
  8
_0-0_
  6
CONTINUOUS
 62
    7
 10
482.27974595696145
 20
1098.1257364084465
 11
488.27972863617384
 21
1098.1257364084465
  0
LINE
  8
_0-0_
  6
CONTINUOUS
 62
    7
 10
457.77973935856613
 20
1098.1257364084465
 11
461.77972781137447
 21
1098.1257364084465
  0
LINE
  8
_0-0_
  6
CONTINUOUS
 62
    7
 10
512.7797352345691
 20
1098.1257364084465
 11
512.7797352345691
 21
1079.9257951341642
  0
LINE
  8
_0-0_
  6
CONTINUOUS
 62
    7
 10
508.77974678176082
 20
1098.1257364084465
 11
512.7797352345691
 21
1098.1257364084465
  0
LINE
  8
_0-0_
  6
CONTINUOUS
 62
    7
 10
461.77972781137447
 20
1098.1257364084465
 11
461.77972781137447
 21
1086.7960855295403
  0
LINE
  8
_0-0_
  6
CONTINUOUS
 62
    7
 10
457.77973935856613
 20
1098.1257364084465
 11
457.77973935856613
 21
1079.9257951341642
  0
LINE
  8
_0-0_
  6
CONTINUOUS
 62
    7
 10
508.77974678176082
 20
1098.1257364084465
 11
508.77974678176082
 21
1083.7873410062082
  0
LINE
  8
_0-0_
  6
CONTINUOUS
 62
    7
 10
488.27972863617384
 20
1098.1257364084465
 11
488.27972863617384
 21
1083.9257835869726
  0
LINE
  8
_0-0_
  6
CONTINUOUS
 62
    7
 10
482.27974595696145
 20
1098.1257364084465
 11
482.27974595696145
 21
1083.9257835869726
  0
LINE
  8
_0-0_
  6
CONTINUOUS
 62
    7
 10
457.77973935856613
 20
1079.9257951341642
 11
499.25022061252525
 21
1079.9257951341642
  0
LINE
  8
_0-0_
  6
CONTINUOUS
 62
    7
 10
404.37542103878144
 20
1065.4572463852201
 11
404.37542103878144
 21
1076.9048023396119
  0
LINE
  8
_0-0_
  6
CONTINUOUS
 62
    7
 10
404.37542103878144
 20
1100.5568326658365
 11
404.37542103878144
 21
1076.9048023396119
  0
LINE
  8
_0-0_
  6
CONTINUOUS
 62
    7
 10
425.40366134573895
 20
1072.2572638709676
 11
425.40366134573895
 21
1107.0573242462842
  0
LINE
  8
_0-0_
  6
CONTINUOUS
 62
    7
 10
413.90364814894832
 20
1072.2572638709676
 11
413.90364814894832
 21
1107.0573242462842
  0
LINE
  8
_0-0_
  6
CONTINUOUS
 62
    7
 10
429.01170511949312
 20
1104.0073809924836
 11
431.0036575516616
 21
1105.157233848269
  0
LINE
  8
_0-0_
  6
CONTINUOUS
 62
    7
 10
425.31755228746187
 20
1115.0071945878171
 11
431.0036575516616
 21
1105.157233848269
  0
LINE
  8
_0-0_
  6
CONTINUOUS
 62
    7
 10
423.32566171524911
 20
1116.1572948834253
 11
415.98164777943816
 21
1116.1572948834253
  0
LINE
  8
_0-0_
  6
CONTINUOUS
 62
    7
 10
413.98969534726967
 20
1115.0071945878171
 11
406.31169951085724
 21
1101.7066855216221
  0
LINE
  8
_0-0_
  6
CONTINUOUS
 62
    7
 10
408.30365194302573
 20
1065.4572463852201
 11
408.30365194302573
 21
1100.5568326658365
  0
LINE
  8
_0-0_
  6
CONTINUOUS
 62
    7
 10
408.30365194302573
 20
1100.5568326658365
 11
415.98164777943816
 21
1113.8573417320317
  0
LINE
  8
_0-0_
  6
CONTINUOUS
 62
    7
 10
429.01170511949312
 20
1104.0073809924836
 11
423.32566171524911
 21
1113.8573417320317
  0
LINE
  8
_0-0_
  6
CONTINUOUS
 62
    7
 10
415.98164777943816
 20
1113.8573417320317
 11
423.32566171524911
 21
1113.8573417320317
  0
LINE
  8
_0-0_
  6
CONTINUOUS
 62
    7
 10
406.00140997327259
 20
1114.962284260009
 11
404.37542103878144
 21
1114.962284260009
  0
LINE
  8
_0-0_
  6
CONTINUOUS
 62
    7
 10
406.00140997327259
 20
1036.5625848169136
 11
406.00140997327259
 21
1114.962284260009
  0
LINE
  8
_0-0_
  6
CONTINUOUS
 62
    7
 10
530.4036366017566
 20
1095.157324576204
 11
512.77540503767307
 21
1095.157324576204
  0
LINE
  8
_0-0_
  6
CONTINUOUS
 62
    7
 10
530.4036366017566
 20
1084.1572635410478
 11
530.4036366017566
 21
1095.157324576204
  0
LINE
  8
_0-0_
  6
CONTINUOUS
 62
    7
 10
530.4036366017566
 20
1084.1572635410478
 11
512.77540503767307
 21
1084.1572635410478
  0
LINE
  8
_0-0_
  6
CONTINUOUS
 62
    7
 10
449.40365392254427
 20
1096.7572704693628
 11
425.40366134573895
 21
1096.7572704693628
  0
LINE
  8
_0-0_
  6
CONTINUOUS
 62
    7
 10
449.40365392254427
 20
1082.5573176478888
 11
425.5315877340413
 21
1082.5573176478888
  0
LINE
  8
_0-0_
  6
CONTINUOUS
 62
    7
 10
449.40365392254427
 20
1082.5573176478888
 11
449.40365392254427
 21
1088.3236552745782
  0
LINE
  8
_0-0_
  6
CONTINUOUS
 62
    7
 10
449.40365392254427
 20
1088.3236552745782
 11
449.40365392254427
 21
1096.7572704693628
  0
LINE
  8
_0-0_
  6
CONTINUOUS
 62
    7
 10
457.77540916167004
 20
1095.157324576204
 11
449.40365392254427
 21
1095.157324576204
  0
LINE
  8
_0-0_
  6
CONTINUOUS
 62
    7
 10
457.77540916167004
 20
1084.1572635410478
 11
449.40365392254427
 21
1084.1572635410478
  0
LINE
  8
_0-0_
  6
CONTINUOUS
 62
    7
 10
437.40362670416368
 20
1082.5573176478888
 11
437.40362670416368
 21
1096.7572704693628
  0
LINE
  8
_0-0_
  6
CONTINUOUS
 62
    7
 10
430.99734783618436
 20
1038.5841681678426
 11
430.99734783618436
 21
1037.0841879630284
  0
LINE
  8
_0-0_
  6
CONTINUOUS
 62
    7
 10
430.99734783618436
 20
1038.5841681678426
 11
447.99732969059738
 21
1038.5841681678426
  0
LINE
  8
_0-0_
  6
CONTINUOUS
 62
    7
 10
447.99732969059738
 20
1038.5841681678426
 11
447.99732969059738
 21
1037.0841879630284
  0
LINE
  8
_0-0_
  6
CONTINUOUS
 62
    7
 10
430.99734783618436
 20
1037.0841879630284
 11
447.99732969059738
 21
1037.0841879630284
  0
LINE
  8
_0-0_
  6
CONTINUOUS
 62
    7
 10
435.4973503105827
 20
1037.0841879630284
 11
435.4973503105827
 21
1005.6274107512462
  0
LINE
  8
_0-0_
  6
CONTINUOUS
 62
    7
 10
435.4973503105827
 20
1032.9206417874582
 11
443.49732721619921
 21
1033.6062975359803
  0
LINE
  8
_0-0_
  6
CONTINUOUS
 62
    7
 10
435.4973503105827
 20
1029.8092097377325
 11
443.49732721619921
 21
1030.4949892061659
  0
LINE
  8
_0-0_
  6
CONTINUOUS
 62
    7
 10
435.4973503105827
 20
1026.6979014079184
 11
443.49732721619921
 21
1027.3835571564405
  0
LINE
  8
_0-0_
  6
CONTINUOUS
 62
    7
 10
435.4973503105827
 20
1023.5864693581931
 11
443.49732721619921
 21
1024.2722488266263
  0
LINE
  8
_0-0_
  6
CONTINUOUS
 62
    7
 10
435.4973503105827
 20
1020.4751610283789
 11
443.49732721619921
 21
1021.1608167769008
  0
LINE
  8
_0-0_
  6
CONTINUOUS
 62
    7
 10
435.4973503105827
 20
1017.3637289786534
 11
443.49732721619921
 21
1018.0495084470865
  0
LINE
  8
_0-0_
  6
CONTINUOUS
 62
    7
 10
435.4973503105827
 20
1014.2524206488392
 11
443.49732721619921
 21
1014.9380763973611
  0
LINE
  8
_0-0_
  6
CONTINUOUS
 62
    7
 10
435.4973503105827
 20
1011.1409885991136
 11
443.49732721619921
 21
1011.8267680675468
  0
LINE
  8
_0-0_
  6
CONTINUOUS
 62
    7
 10
435.4973503105827
 20
1008.0296802692994
 11
443.49732721619921
 21
1008.7153360178215
  0
LINE
  8
_0-0_
  6
CONTINUOUS
 62
    7
 10
435.55747818748296
 20
1004.9234444558493
 11
443.49732721619921
 21
1005.6040276880072
  0
LINE
  8
_0-0_
  6
CONTINUOUS
 62
    7
 10
436.29305492022161
 20
1001.8751714208514
 11
442.89994562440233
 21
1002.4414374549519
  0
LINE
  8
_0-0_
  6
CONTINUOUS
 62
    7
 10
437.89454731227187
 20
998.90106847268839
 11
441.30587642703114
 21
999.19348048308746
  0
LINE
  8
_0-0_
  6
CONTINUOUS
 62
    7
 10
435.50155678756744
 20
1036.0323212770063
 11
443.49732721619921
 21
1036.7177295857057
  0
LINE
  8
_0-0_
  6
CONTINUOUS
 62
    7
 10
443.49732721619921
 20
1037.0841879630284
 11
443.49732721619921
 21
1005.6274107512462
  0
LINE
  8
_0-0_
  6
CONTINUOUS
 62
    7
 10
446.74732556660041
 20
1044.0841368254651
 11
432.2473519601815
 21
1044.0841368254651
  0
LINE
  8
_0-0_
  6
CONTINUOUS
 62
    7
 10
443.09734074290952
 20
1044.0841368254651
 11
443.09734074290952
 21
1038.5841681678426
  0
LINE
  8
_0-0_
  6
CONTINUOUS
 62
    7
 10
435.89733678387239
 20
1044.0841368254651
 11
435.89733678387239
 21
1038.5841681678426
  0
LINE
  8
_0-0_
  6
CONTINUOUS
 62
    7
 10
432.2473519601815
 20
1044.0841368254651
 11
432.2473519601815
 21
1038.5841681678426
  0
LINE
  8
_0-0_
  6
CONTINUOUS
 62
    7
 10
446.74732556660041
 20
1044.0841368254651
 11
446.74732556660041
 21
1038.5841681678426
  0
LINE
  8
_0-0_
  6
CONTINUOUS
 62
    7
 10
479.55314469138921
 20
1035.9720696801949
 11
479.55314469138921
 21
1037.5451683525976
  0
LINE
  8
_0-0_
  6
CONTINUOUS
 62
    4
 10
459.37541691478452
 20
946.12017478603298
 11
479.55314469138921
 21
946.12017478603298
  0
LINE
  8
_0-0_
  6
CONTINUOUS
 62
    7
 10
479.55314469138921
 20
1034.9625152038434
 11
479.55314469138921
 21
883.71634639709714
  0
LINE
  8
_0-0_
  6
CONTINUOUS
 62
    7
 10
389.55315706338041
 20
1034.9625152038434
 11
389.55315706338041
 21
1305.0740115879228
  0
LINE
  8
_0-0_
  6
CONTINUOUS
 62
    7
 10
380.5531521145839
 20
1025.9625102550469
 11
380.5531521145839
 21
1305.0740115879228
  0
LINE
  8
_0-0_
  6
CONTINUOUS
 62
    7
 10
459.37541691478452
 20
1025.9625102550469
 11
369.37542928677573
 21
1025.9625102550469
  0
LINE
  8
_0-0_
  6
CONTINUOUS
 62
    7
 10
368.55312489620331
 20
1025.9625102550469
 11
368.55312489620331
 21
1305.0740115879228
  0
LINE
  8
_0-0_
  6
CONTINUOUS
 62
    7
 10
278.55313726819446
 20
905.96254737102026
 11
278.55313726819446
 21
1305.0740115879228
  0
LINE
  8
_0-0_
  6
CONTINUOUS
 62
    7
 10
459.37541691478452
 20
905.96254737102026
 11
278.55313726819446
 21
905.96254737102026
  0
LINE
  8
_0-0_
  6
CONTINUOUS
 62
    7
 10
258.55316407417536
 20
884.96257706379902
 11
258.55316407417536
 21
1305.0740115879228
  0
LINE
  8
_0-0_
  6
CONTINUOUS
 62
    7
 10
479.3754210387815
 20
884.96257706379902
 11
258.55316407417536
 21
884.96257706379902
  0
LINE
  8
_0-0_
  6
CONTINUOUS
 62
    7
 10
369.37542928677573
 20
995.96253499902912
 11
369.37542928677573
 21
1025.9625102550469
  0
LINE
  8
_0-0_
  6
CONTINUOUS
 62
    7
 10
459.37541691478452
 20
995.96253499902912
 11
369.37542928677573
 21
995.96253499902912
  0
ARC
  8
_0-0_
  6
CONTINUOUS
 62
    7
 10
418.09886662181577
 20
1131.9489043639996
 40
113.78000620249155
 50
301.52603149414063
 51
304.95407104492187
  0
ARC
  8
_0-0_
  6
CONTINUOUS
 62
    7
 10
468.61110829464087
 20
1071.0584179303003
 40
33.651866139592357
 50
284.95133972167969
 51
295.32809448242187
  0
ARC
  8
_0-0_
  6
CONTINUOUS
 62
    7
 10
474.96313598150743
 20
881.77796468652912
 40
156.7851092364337
 50
89.1484375
 51
97.479873657226577
  0
ARC
  8
_0-0_
  6
CONTINUOUS
 62
    7
 10
474.29869819777645
 20
1036.7286169379017
 40
0.8270845219895646
 50
287.91964721679687
 51
72.080337524414077
  0
ARC
  8
_0-0_
  6
CONTINUOUS
 62
    7
 10
505.14689716578749
 20
986.26697670880526
 40
58.70887524372823
 50
91.596969604492188
 51
112.15451049804687
  0
ARC
  8
_0-0_
  6
CONTINUOUS
 62
    7
 10
507.62983206601967
 20
995.33979082541225
 40
49.721072171185476
 50
94.455978393554688
 51
119.31524658203124
  0
ARC
  8
_0-0_
  6
CONTINUOUS
 62
    7
 10
455.97540817191083
 20
1045.16260329242
 40
1.6000000206199851
 50
180
 51
270
  0
ARC
  8
_0-0_
  6
CONTINUOUS
 62
    7
 10
455.97540817191083
 20
1075.2522754841432
 40
1.6000000206199851
 50
90
 51
180
  0
ARC
  8
_0-0_
  6
CONTINUOUS
 62
    7
 10
406.00140997327259
 20
1036.5625848169136
 40
1.6000000206199851
 50
180
 51
270
  0
ARC
  8
_0-0_
  6
CONTINUOUS
 62
    7
 10
419.65365474734364
 20
1072.329145139443
 40
5.7504497669838575
 50
180.71636962890628
 51
359.28364562988281
  0
ARC
  8
_0-0_
  6
CONTINUOUS
 62
    7
 10
419.65365474734364
 20
1107.0000419273442
 40
5.7502844849148316
 50
0.5702514648437691
 51
179.42973327636722
  0
ARC
  8
_0-0_
  6
CONTINUOUS
 62
    7
 10
423.32566171524911
 20
1113.8573417320317
 40
2.3000000296412288
 50
29.996658325195352
 51
89.99998474121098
  0
ARC
  8
_0-0_
  6
CONTINUOUS
 62
    7
 10
415.98164777943816
 20
1113.8573417320317
 40
2.3000000296412288
 50
90
 51
150.00334167480469
  0
ARC
  8
_0-0_
  6
CONTINUOUS
 62
    7
 10
408.30365194302573
 20
1065.4572463852201
 40
2.3000000296412288
 50
179.99998474121097
 51
270
  0
ARC
  8
_0-0_
  6
CONTINUOUS
 62
    7
 10
408.30365194302573
 20
1100.5568326658365
 40
2.3000000296412288
 50
150.00332641601565
 51
179.99998474121097
  0
ARC
  8
_0-0_
  6
CONTINUOUS
 62
    7
 10
448.17641426222957
 20
1006.3557498691728
 40
12.699999680390231
 50
183.28778076171878
 51
226.89060974121097
  0
ARC
  8
_0-0_
  6
CONTINUOUS
 62
    7
 10
430.81820140459661
 20
1006.3557498691728
 40
12.699999680390231
 50
313.109375
 51
356.71220397949219
  0
POINT
  8
_0-0_
 62
    4
 10
394.41497841842676
 20
1231.4971617278088
  0
POINT
  8
_0-0_
 62
    4
 10
479.3754210387815
 20
1231.4971617278088
  0
POINT
  8
_0-0_
 62
    4
 10
561.84760880271733
 20
1075.2522754841432
  0
POINT
  8
_0-0_
 62
    4
 10
561.84760880271733
 20
1045.16260329242
  0
POINT
  8
_0-0_
 62
    4
 10
459.37541691478452
 20
946.12017478603298
  0
POINT
  8
_0-0_
 62
    4
 10
479.55314469138921
 20
946.12017478603298
  0
ARC
  8
_0-0_
  6
CONTINUOUS
 62
    7
 10
348.74385180688051
 20
1153.7678332381074
 40
88.622756958007813
 50
341.92012023925781
 51
18.079864501953146
  0
ARC
  8
_0-0_
  6
CONTINUOUS
 62
    7
 10
431.3908492586628
 20
1118.8632350020237
 40
1.6000000238418577
 50
269.99999999999994
 51
359.99999999999994
  0
LINE
  8
_0-0_
  6
CONTINUOUS
 62
    7
 10
446.7839535734671
 20
1163.0632357649631
 11
436.87778487420269
 21
1163.0632357649631
  0
LINE
  8
_0-0_
  6
CONTINUOUS
 62
    7
 10
446.7839535734671
 20
1143.0632357649629
 11
446.7839535734671
 21
1163.0632357649631
  0
LINE
  8
_0-0_
  6
CONTINUOUS
 62
    7
 10
446.7839535734671
 20
1143.0632357649629
 11
436.71774687981747
 21
1143.0632357649629
  0
LINE
  8
_0-0_
  6
CONTINUOUS
 62
    7
 10
431.3908492586628
 20
1159.3687624983613
 11
431.3908492586628
 21
1164.1695513777561
  0
LINE
  8
_0-0_
  6
CONTINUOUS
 62
    7
 10
431.3908492586628
 20
1136.7650256209197
 11
431.3908492586628
 21
1159.3687624983613
  0
LINE
  8
_0-0_
  6
CONTINUOUS
 62
    7
 10
431.3908492586628
 20
1164.1695513777561
 11
431.3908492586628
 21
1188.8632388167209
  0
LINE
  8
_0-0_
  6
CONTINUOUS
 62
    7
 10
431.3908492586628
 20
1118.8632350020237
 11
431.3908492586628
 21
1136.7650256209197
  0
LINE
  8
_0-0_
  6
CONTINUOUS
 62
    7
 10
396.39085116601166
 20
1123.0632357649629
 11
396.39085116601166
 21
1183.0632357649629
  0
LINE
  8
_0-0_
  6
CONTINUOUS
 62
    7
 10
432.99084964013241
 20
1118.8632350020237
 11
432.99084964013241
 21
1188.8632388167209
  0
LINE
  8
_0-0_
  6
CONTINUOUS
 62
    7
 10
431.3908492586628
 20
1188.8632388167209
 11
432.99084964013241
 21
1188.8632388167209
  0
LINE
  8
_0-0_
  6
CONTINUOUS
 62
    7
 10
431.3908492586628
 20
1183.0632357649629
 11
396.39085116601166
 21
1183.0632357649629
  0
LINE
  8
_0-0_
  6
CONTINUOUS
 62
    7
 10
431.3908492586628
 20
1123.0632357649629
 11
396.39085116601166
 21
1123.0632357649629
  0
LINE
  8
_0-0_
  6
CONTINUOUS
 62
    7
 10
431.3908492586628
 20
1117.2632346205535
 11
404.39267996641036
 21
1117.2632346205535
  0
LINE
  8
_0-0_
  6
CONTINUOUS
 62
    7
 10
404.39267996641036
 20
1036.5625848169136
 11
404.39267996641036
 21
1117.2632346205535
  0
LINE
  8
_0-0_
  6
CONTINUOUS
 62
    7
 10
402.79267996641039
 20
1036.5625848169136
 11
404.36836900383639
 21
1036.5625848169136
  0
LINE
  8
_0-0_
  6
CONTINUOUS
 62
    7
 10
402.79267996641039
 20
1117.2632350020237
 11
402.79267996641039
 21
1036.5625848169136
  0
LINE
  8
_0-0_
  6
CONTINUOUS
 62
    7
 10
404.39267996641036
 20
1118.8632350020237
 11
431.3908492586628
 21
1118.8632350020237
  0
ARC
  8
_0-0_
  6
CONTINUOUS
 62
    7
 10
404.39267996641036
 20
1117.2632350020237
 40
1.6000000000000001
 50
90
 51
180
  0
LINE
  8
_0-0_
  6
CONTINUOUS
 62
    7
 10
401.33752094298671
 20
1074.9554714168924
 11
402.81776782194584
 21
1074.9554714168924
  0
LINE
  8
_0-0_
  6
CONTINUOUS
 62
    7
 10
399.7649790101849
 20
1077.4554796648865
 11
401.36455374360963
 21
1074.9612862527242
  0
LINE
  8
_0-0_
  6
CONTINUOUS
 62
    7
 10
399.7649790101849
 20
1088.4555407000428
 11
401.31772575717594
 21
1090.9554252281255
  0
LINE
  8
_0-0_
  6
CONTINUOUS
 62
    7
 10
395.81775709955355
 20
1077.4554796648865
 11
399.7649790101849
 21
1077.4554796648865
  0
LINE
  8
_0-0_
  6
CONTINUOUS
 62
    7
 10
395.81775709955355
 20
1077.4554796648865
 11
395.81775709955355
 21
1088.4555407000428
  0
LINE
  8
_0-0_
  6
CONTINUOUS
 62
    7
 10
395.81775709955355
 20
1088.4555407000428
 11
399.7649790101849
 21
1088.4555407000428
  0
LINE
  8
_0-0_
  6
CONTINUOUS
 62
    7
 10
399.81774555236171
 20
1077.4554796648865
 11
399.81774555236171
 21
1088.4555407000428
  0
LINE
  8
_0-0_
  6
CONTINUOUS
 62
    7
 10
401.31772575717594
 20
1074.9554714168924
 11
401.31772575717594
 21
1090.9554252281255
  0
LINE
  8
_0-0_
  6
CONTINUOUS
 62
    7
 10
399.81774555236171
 20
1085.9560273316938
 11
395.81775709955355
 21
1085.9560273316938
  0
LINE
  8
_0-0_
  6
CONTINUOUS
 62
    7
 10
399.81774555236171
 20
1079.9561065124371
 11
395.81775709955355
 21
1079.9561065124371
  0
LINE
  8
_0-0_
  6
CONTINUOUS
 62
    7
 10
402.81776782194584
 20
1074.9554714168924
 11
402.81776782194584
 21
1090.9554252281255
  0
LINE
  8
_0-0_
  6
CONTINUOUS
 62
    7
 10
401.31772575717594
 20
1090.9554252281255
 11
402.81776782194584
 21
1090.9554252281255
  0
TEXT
  8
_0-0_
 62
    3
 10
456.33928080308687
 20
948.62018303402704
 40
25
 41
1
 50
0
  1
20
  0
TEXT
  8
_0-0_
 62
    3
 10
507.46861471158036
 20
1010.2609688699118
 40
25
 41
1
 50
0
  1
アルマシール
  0
TEXT
  8
_0-0_
 62
    7
 10
558.9696980856038
 20
1049.0427112751588
 40
20
 41
1
 50
90
  1
30
  0
LINE
  8
_0-0_
  6
CONTINUOUS
 62
    7
 10
1136.4370956003263
 20
1036.5875031658447
 11
1153.4370774547392
 21
1036.5875031658447
  0
LINE
  8
_0-0_
  6
CONTINUOUS
 62
    7
 10
1143.2342675281134
 20
1082.116925410355
 11
1143.2342675281134
 21
1096.3170019517402
  0
LINE
  8
_0-0_
  6
CONTINUOUS
 62
    7
 10
1163.6061118455755
 20
1083.7169950234249
 11
1155.2343566064496
 21
1083.7169950234249
  0
LINE
  8
_0-0_
  6
CONTINUOUS
 62
    7
 10
1163.6061118455755
 20
1094.7169323386699
 11
1155.2343566064496
 21
1094.7169323386699
  0
LINE
  8
_0-0_
  6
CONTINUOUS
 62
    7
 10
1155.2343566064496
 20
1087.8833867569554
 11
1155.2343566064496
 21
1096.3170019517402
  0
LINE
  8
_0-0_
  6
CONTINUOUS
 62
    7
 10
1155.2343566064496
 20
1082.116925410355
 11
1155.2343566064496
 21
1087.8833867569554
  0
LINE
  8
_0-0_
  6
CONTINUOUS
 62
    7
 10
1155.2343566064496
 20
1082.116925410355
 11
1131.3622285579909
 21
1082.116925410355
  0
LINE
  8
_0-0_
  6
CONTINUOUS
 62
    7
 10
1155.2343566064496
 20
1096.3170019517402
 11
1131.2343021696884
 21
1096.3170019517402
  0
LINE
  8
_0-0_
  6
CONTINUOUS
 62
    7
 10
1236.2342774257063
 20
1083.7169950234249
 11
1218.6060458616225
 21
1083.7169950234249
  0
LINE
  8
_0-0_
  6
CONTINUOUS
 62
    7
 10
1236.2342774257063
 20
1083.7169950234249
 11
1236.2342774257063
 21
1094.7169323386699
  0
LINE
  8
_0-0_
  6
CONTINUOUS
 62
    7
 10
1236.2342774257063
 20
1094.7169323386699
 11
1218.6060458616225
 21
1094.7169323386699
  0
LINE
  8
_0-0_
  6
CONTINUOUS
 62
    7
 10
1111.8320507972223
 20
1036.1221925793793
 11
1111.8320507972223
 21
1114.5220157423862
  0
LINE
  8
_0-0_
  6
CONTINUOUS
 62
    7
 10
1111.8320507972223
 20
1114.5220157423862
 11
1110.2061237226869
 21
1114.5220157423862
  0
LINE
  8
_0-0_
  6
CONTINUOUS
 62
    7
 10
1121.812288603388
 20
1113.4169494944977
 11
1129.1563025391986
 21
1113.4169494944977
  0
LINE
  8
_0-0_
  6
CONTINUOUS
 62
    7
 10
1134.842345943443
 20
1103.567112474861
 11
1129.1563025391986
 21
1113.4169494944977
  0
LINE
  8
_0-0_
  6
CONTINUOUS
 62
    7
 10
1114.1343546269309
 20
1100.1165641482137
 11
1121.812288603388
 21
1113.4169494944977
  0
LINE
  8
_0-0_
  6
CONTINUOUS
 62
    7
 10
1114.1343546269309
 20
1065.0169778675972
 11
1114.1343546269309
 21
1100.1165641482137
  0
LINE
  8
_0-0_
  6
CONTINUOUS
 62
    7
 10
1119.820398031175
 20
1114.5668023502831
 11
1112.1423403348067
 21
1101.2664170039993
  0
LINE
  8
_0-0_
  6
CONTINUOUS
 62
    7
 10
1129.1563025391986
 20
1115.7170263658027
 11
1121.812288603388
 21
1115.7170263658027
  0
LINE
  8
_0-0_
  6
CONTINUOUS
 62
    7
 10
1131.1481931114117
 20
1114.5668023502831
 11
1136.8343602355667
 21
1104.7169653306464
  0
LINE
  8
_0-0_
  6
CONTINUOUS
 62
    7
 10
1134.842345943443
 20
1103.567112474861
 11
1136.8343602355667
 21
1104.7169653306464
  0
LINE
  8
_0-0_
  6
CONTINUOUS
 62
    7
 10
1119.734288972898
 20
1071.8169953533447
 11
1119.734288972898
 21
1106.6169320087502
  0
LINE
  8
_0-0_
  6
CONTINUOUS
 62
    7
 10
1131.2343021696884
 20
1071.8169953533447
 11
1131.2343021696884
 21
1106.6169320087502
  0
LINE
  8
_0-0_
  6
CONTINUOUS
 62
    7
 10
1110.2061237226869
 20
1036.1221925793793
 11
1110.2061237226869
 21
1114.5220157423862
  0
LINE
  8
_0-0_
  6
CONTINUOUS
 62
    7
 10
1110.2061237226869
 20
1100.1165641482137
 11
1110.2061237226869
 21
1076.4645338219893
  0
LINE
  8
_0-0_
  6
CONTINUOUS
 62
    7
 10
1110.2061237226869
 20
1065.0169778675972
 11
1110.2061237226869
 21
1076.4645338219893
  0
LINE
  8
_0-0_
  6
CONTINUOUS
 62
    7
 10
1163.6104420424715
 20
1079.4854028966301
 11
1205.0808614364748
 21
1079.4854028966301
  0
LINE
  8
_0-0_
  6
CONTINUOUS
 62
    7
 10
1188.1104486408667
 20
1097.6854678908237
 11
1188.1104486408667
 21
1083.4853913494385
  0
LINE
  8
_0-0_
  6
CONTINUOUS
 62
    7
 10
1194.1104931800348
 20
1097.6854678908237
 11
1194.1104931800348
 21
1083.4853913494385
  0
LINE
  8
_0-0_
  6
CONTINUOUS
 62
    7
 10
1214.6103876057105
 20
1097.6854678908237
 11
1214.6103876057105
 21
1083.3469487686741
  0
LINE
  8
_0-0_
  6
CONTINUOUS
 62
    7
 10
1163.6104420424715
 20
1097.6854678908237
 11
1163.6104420424715
 21
1079.4854028966301
  0
LINE
  8
_0-0_
  6
CONTINUOUS
 62
    7
 10
1167.6104304952798
 20
1097.6854678908237
 11
1167.6104304952798
 21
1086.355693292006
  0
LINE
  8
_0-0_
  6
CONTINUOUS
 62
    7
 10
1214.6103876057105
 20
1097.6854678908237
 11
1218.6103760585188
 21
1097.6854678908237
  0
LINE
  8
_0-0_
  6
CONTINUOUS
 62
    7
 10
1218.6103760585188
 20
1097.6854678908237
 11
1218.6103760585188
 21
1079.4854028966301
  0
LINE
  8
_0-0_
  6
CONTINUOUS
 62
    7
 10
1163.6104420424715
 20
1097.6854678908237
 11
1167.6104304952798
 21
1097.6854678908237
  0
LINE
  8
_0-0_
  6
CONTINUOUS
 62
    7
 10
1188.1104486408667
 20
1097.6854678908237
 11
1194.1104931800348
 21
1097.6854678908237
  0
LINE
  8
_0-0_
  6
CONTINUOUS
 62
    7
 10
1167.6104304952798
 20
1097.6854678908237
 11
1214.6103876057105
 21
1097.6854678908237
  0
LINE
  8
_0-0_
  6
CONTINUOUS
 62
    7
 10
1167.6104304952798
 20
1083.4853913494385
 11
1214.9759799436538
 21
1083.4853913494385
  0
LINE
  8
_0-0_
  6
CONTINUOUS
 62
    7
 10
1167.6104304952798
 20
1086.355693292006
 11
1167.6104304952798
 21
1083.6478355929985
  0
LINE
  8
_0-0_
  6
CONTINUOUS
 62
    7
 10
1205.0808614364748
 20
1079.4854028966301
 11
1218.6103760585188
 21
1079.4854028966301
  0
LINE
  8
_0-0_
  6
CONTINUOUS
 62
    7
 10
1161.8061108558161
 20
1076.4119528596791
 11
1218.6060458616225
 21
1076.4119528596791
  0
LINE
  8
_0-0_
  6
CONTINUOUS
 62
    7
 10
1218.6060458616225
 20
1076.4119528596791
 11
1218.6060458616225
 21
1095.311901392196
  0
LINE
  8
_0-0_
  6
CONTINUOUS
 62
    7
 10
1218.6060458616225
 20
1074.8118832466091
 11
1218.6060458616225
 21
1076.4119528596791
  0
LINE
  8
_0-0_
  6
CONTINUOUS
 62
    7
 10
1161.8061108558161
 20
1043.1222651617272
 11
1180.2061072266986
 21
1043.1222651617272
  0
LINE
  8
_0-0_
  6
CONTINUOUS
 62
    7
 10
1160.2060412427459
 20
1044.7222110548862
 11
1160.2060412427459
 21
1074.8118832466091
  0
LINE
  8
_0-0_
  6
CONTINUOUS
 62
    7
 10
1180.2061072266986
 20
1043.1222651617272
 11
1180.2061072266986
 21
1044.7222110548862
  0
LINE
  8
_0-0_
  6
CONTINUOUS
 62
    7
 10
1163.6061118455755
 20
1095.311901392196
 11
1163.6061118455755
 21
1076.1810915051606
  0
LINE
  8
_0-0_
  6
CONTINUOUS
 62
    7
 10
1161.8061108558161
 20
1044.7222110548862
 11
1161.8061108558161
 21
1074.8118832466091
  0
LINE
  8
_0-0_
  6
CONTINUOUS
 62
    7
 10
1180.3838927392621
 20
1036.562264303936
 11
1180.3838927392621
 21
1037.0753307761699
  0
LINE
  8
_0-0_
  6
CONTINUOUS
 62
    7
 10
1111.8320507972223
 20
1036.1221925793793
 11
1180.3838927392621
 21
1037.1048998349747
  0
LINE
  8
_0-0_
  6
CONTINUOUS
 62
    7
 10
1180.3838927392621
 20
1035.5318011625718
 11
1180.3838927392621
 21
1037.1048998349747
  0
LINE
  8
_0-0_
  6
CONTINUOUS
 62
    7
 10
1111.8320507972223
 20
1034.5222466862206
 11
1180.3838927392621
 21
1035.5318011625718
  0
LINE
  8
_0-0_
  6
CONTINUOUS
 62
    7
 10
1114.1343546269309
 20
1065.0169778675972
 11
1135.2060824827163
 21
1065.0169778675972
  0
LINE
  8
_0-0_
  6
CONTINUOUS
 62
    7
 10
1135.2060824827163
 20
1062.7170247162035
 11
1135.2060824827163
 21
1065.0169778675972
  0
LINE
  8
_0-0_
  6
CONTINUOUS
 62
    7
 10
1114.1343546269309
 20
1062.7170247162035
 11
1135.2060824827163
 21
1062.7170247162035
  0
LINE
  8
_0-0_
  6
CONTINUOUS
 62
    7
 10
1290.4024424779655
 20
1044.7222110548862
 11
1161.8061108558161
 21
1044.7222110548862
  0
LINE
  8
_0-0_
  6
CONTINUOUS
 62
    7
 10
1161.8061108558161
 20
1074.8118832466091
 11
1290.4024424779655
 21
1074.8118832466091
  0
LINE
  8
_0-0_
  6
CONTINUOUS
 62
    7
 10
1136.4370956003263
 20
1038.0874833706591
 11
1136.4370956003263
 21
1036.5875031658447
  0
LINE
  8
_0-0_
  6
CONTINUOUS
 62
    7
 10
1140.93715993468
 20
1036.5875031658447
 11
1140.93715993468
 21
1005.1307259540627
  0
LINE
  8
_0-0_
  6
CONTINUOUS
 62
    7
 10
1140.93715993468
 20
1032.4239569902747
 11
1148.9371368402967
 21
1033.1096127387966
  0
LINE
  8
_0-0_
  6
CONTINUOUS
 62
    7
 10
1140.93715993468
 20
1029.3125249405491
 11
1148.9371368402967
 21
1029.9983044089824
  0
LINE
  8
_0-0_
  6
CONTINUOUS
 62
    7
 10
1140.93715993468
 20
1026.2012166107347
 11
1148.9371368402967
 21
1026.886872359257
  0
LINE
  8
_0-0_
  6
CONTINUOUS
 62
    7
 10
1140.93715993468
 20
1023.0897845610093
 11
1148.9371368402967
 21
1023.7755640294426
  0
LINE
  8
_0-0_
  6
CONTINUOUS
 62
    7
 10
1140.93715993468
 20
1019.9784762311953
 11
1148.9371368402967
 21
1020.6641319797171
  0
LINE
  8
_0-0_
  6
CONTINUOUS
 62
    7
 10
1140.93715993468
 20
1016.8670441814697
 11
1148.9371368402967
 21
1017.5528236499031
  0
LINE
  8
_0-0_
  6
CONTINUOUS
 62
    7
 10
1140.93715993468
 20
1013.7557358516557
 11
1148.9371368402967
 21
1014.4414534601333
  0
LINE
  8
_0-0_
  6
CONTINUOUS
 62
    7
 10
1140.93715993468
 20
1010.6443656618856
 11
1148.9371368402967
 21
1011.3300832703633
  0
LINE
  8
_0-0_
  6
CONTINUOUS
 62
    7
 10
1140.93715993468
 20
1007.5329954721158
 11
1148.9371368402967
 21
1008.2187130805935
  0
LINE
  8
_0-0_
  6
CONTINUOUS
 62
    7
 10
1140.9972878115805
 20
1004.4267596586656
 11
1148.9371368402967
 21
1005.1073428908237
  0
LINE
  8
_0-0_
  6
CONTINUOUS
 62
    7
 10
1141.7329264042746
 20
1001.3784866236679
 11
1148.3398171084555
 21
1001.9447526577685
  0
LINE
  8
_0-0_
  6
CONTINUOUS
 62
    7
 10
1143.3343569363692
 20
998.40438367550496
 11
1146.7456860511286
 21
998.69679568590391
  0
LINE
  8
_0-0_
  6
CONTINUOUS
 62
    7
 10
1140.9413664116651
 20
1035.5356364798229
 11
1148.9371368402967
 21
1036.221044788522
  0
LINE
  8
_0-0_
  6
CONTINUOUS
 62
    7
 10
1148.9371368402967
 20
1036.5875031658447
 11
1148.9371368402967
 21
1005.1307259540627
  0
LINE
  8
_0-0_
  6
CONTINUOUS
 62
    7
 10
1152.1871351906977
 20
1043.5874520282814
 11
1137.6871615842788
 21
1043.5874520282814
  0
LINE
  8
_0-0_
  6
CONTINUOUS
 62
    7
 10
1148.5371503670069
 20
1043.5874520282814
 11
1148.5371503670069
 21
1038.0874833706591
  0
LINE
  8
_0-0_
  6
CONTINUOUS
 62
    7
 10
1141.3371464079696
 20
1043.5874520282814
 11
1141.3371464079696
 21
1038.0874833706591
  0
LINE
  8
_0-0_
  6
CONTINUOUS
 62
    7
 10
1137.6871615842788
 20
1043.5874520282814
 11
1137.6871615842788
 21
1038.0874833706591
  0
LINE
  8
_0-0_
  6
CONTINUOUS
 62
    7
 10
1152.1871351906977
 20
1043.5874520282814
 11
1152.1871351906977
 21
1038.0874833706591
  0
LINE
  8
_0-0_
  6
CONTINUOUS
 62
    7
 10
1136.4370956003263
 20
1038.0874833706591
 11
1153.5204646749673
 21
1038.0874833706591
  0
LINE
  8
_0-0_
  6
CONTINUOUS
 62
    7
 10
1153.4370774547392
 20
1036.5875031658447
 11
1153.4370774547392
 21
1038.1434047705743
  0
LINE
  8
_0-0_
  6
CONTINUOUS
 62
    7
 10
1164.2602190167113
 20
1025.5406760042104
 11
954.26026850467588
 21
1025.5406760042104
  0
LINE
  8
_0-0_
  6
CONTINUOUS
 62
    7
 10
954.26026850467588
 20
1025.5406760042104
 11
954.26026850467588
 21
920.54063888823691
  0
LINE
  8
_0-0_
  6
CONTINUOUS
 62
    7
 10
1068.26024870949
 20
1034.540680953007
 11
1068.26024870949
 21
1313.3588423761487
  0
LINE
  8
_0-0_
  6
CONTINUOUS
 62
    7
 10
1059.2602437606936
 20
1034.540680953007
 11
1059.2602437606936
 21
1313.3588423761487
  0
LINE
  8
_0-0_
  6
CONTINUOUS
 62
    7
 10
934.26020252072306
 20
1025.5406760042104
 11
934.26020252072306
 21
900.54063476424005
  0
LINE
  8
_0-0_
  6
CONTINUOUS
 62
    7
 10
954.26026850467588
 20
1025.5406760042104
 11
954.26026850467588
 21
1304.4793406209758
  0
LINE
  8
_0-0_
  6
CONTINUOUS
 62
    7
 10
934.26020252072306
 20
1025.5406760042104
 11
934.26020252072306
 21
1306.6991232698354
  0
LINE
  8
_0-0_
  6
CONTINUOUS
 62
    7
 10
1059.2602437606936
 20
1034.540680953007
 11
1059.2602437606936
 21
920.54063888823691
  0
LINE
  8
_0-0_
  6
CONTINUOUS
 62
    7
 10
1164.2602190167113
 20
920.54063888823691
 11
954.26026850467588
 21
920.54063888823691
  0
LINE
  8
_0-0_
  6
CONTINUOUS
 62
    7
 10
1164.2602190167113
 20
1034.540680953007
 11
1164.2602190167113
 21
920.54063888823691
  0
LINE
  8
_0-0_
  6
CONTINUOUS
 62
    7
 10
1164.2602190167113
 20
1025.5406760042104
 11
1059.2602437606936
 21
920.54063888823691
  0
LINE
  8
_0-0_
  6
CONTINUOUS
 62
    7
 10
1059.2602437606936
 20
1025.5406760042104
 11
1164.2602190167113
 21
920.54063888823691
  0
LINE
  8
_0-0_
  6
CONTINUOUS
 62
    7
 10
1059.2602437606936
 20
1025.5406760042104
 11
954.26026850467588
 21
920.54063888823691
  0
LINE
  8
_0-0_
  6
CONTINUOUS
 62
    7
 10
954.26026850467588
 20
1025.5406760042104
 11
1059.2602437606936
 21
920.54063888823691
  0
LINE
  8
_0-0_
  6
CONTINUOUS
 62
    4
 10
1059.2602437606936
 20
1240.1029219659927
 11
1068.26024870949
 21
1240.1029219659927
  0
LINE
  8
_0-0_
  6
CONTINUOUS
 62
    4
 10
1184.260285000664
 20
967.05858322417441
 11
1164.2602190167113
 21
967.05858322417441
  0
LINE
  8
_0-0_
  6
CONTINUOUS
 62
    4
 10
1164.2602190167113
 20
967.05858322417441
 11
1059.2602437606936
 21
967.05858322417441
  0
LINE
  8
_0-0_
  6
CONTINUOUS
 62
    4
 10
1059.2602437606936
 20
967.05858322417441
 11
1006.760194272729
 21
967.05858322417441
  0
LINE
  8
_0-0_
  6
CONTINUOUS
 62
    7
 10
1185.1838541386496
 20
1034.540680953007
 11
1059.2602437606936
 21
1034.540680953007
  0
LINE
  8
_0-0_
  6
CONTINUOUS
 62
    7
 10
1185.1838541386496
 20
900.54063476424005
 11
934.26020252072306
 21
900.54063476424005
  0
LINE
  8
_0-0_
  6
CONTINUOUS
 62
    7
 10
1185.1838541386496
 20
1034.540680953007
 11
1185.1838541386496
 21
900.54063476424005
  0
ARC
  8
_0-0_
  6
CONTINUOUS
 62
    7
 10
1114.1343546269309
 20
1100.1165641482137
 40
2.3000000296412288
 50
150.00332641601565
 51
179.99998474121097
  0
ARC
  8
_0-0_
  6
CONTINUOUS
 62
    7
 10
1114.1343546269309
 20
1065.0169778675972
 40
2.3000000296412288
 50
179.99998474121097
 51
270
  0
ARC
  8
_0-0_
  6
CONTINUOUS
 62
    7
 10
1121.812288603388
 20
1113.4169494944977
 40
2.3000000296412288
 50
90
 51
150.00334167480469
  0
ARC
  8
_0-0_
  6
CONTINUOUS
 62
    7
 10
1129.1563025391986
 20
1113.4169494944977
 40
2.3000000296412288
 50
29.996658325195352
 51
89.99998474121098
  0
ARC
  8
_0-0_
  6
CONTINUOUS
 62
    7
 10
1125.4842955712934
 20
1106.5597734097216
 40
5.7502844849148316
 50
0.5702514648437691
 51
179.42973327636722
  0
ARC
  8
_0-0_
  6
CONTINUOUS
 62
    7
 10
1125.4842955712934
 20
1071.8888766218201
 40
5.7504497669838575
 50
180.71636962890628
 51
359.28364562988281
  0
ARC
  8
_0-0_
  6
CONTINUOUS
 62
    7
 10
1111.8320507972223
 20
1036.1221925793793
 40
1.6000000206199851
 50
180
 51
270
  0
ARC
  8
_0-0_
  6
CONTINUOUS
 62
    7
 10
1161.8061108558161
 20
1074.8118832466091
 40
1.6000000206199851
 50
90
 51
180
  0
ARC
  8
_0-0_
  6
CONTINUOUS
 62
    7
 10
1161.8061108558161
 20
1044.7222110548862
 40
1.6000000206199851
 50
180
 51
270
  0
ARC
  8
_0-0_
  6
CONTINUOUS
 62
    7
 10
1213.460534749925
 20
994.89952230778954
 40
49.721072171185476
 50
94.455978393554688
 51
119.31524658203124
  0
ARC
  8
_0-0_
  6
CONTINUOUS
 62
    7
 10
1210.977599849693
 20
985.82664633122704
 40
58.70887524372823
 50
91.596969604492188
 51
112.15451049804687
  0
ARC
  8
_0-0_
  6
CONTINUOUS
 62
    7
 10
1180.1294008816817
 20
1036.2883484202789
 40
0.8270845823996776
 50
287.91964721679687
 51
72.080337524414077
  0
ARC
  8
_0-0_
  6
CONTINUOUS
 62
    7
 10
1180.7937768054571
 20
881.3376961689064
 40
156.7851092364337
 50
89.1484375
 51
97.479873657226577
  0
ARC
  8
_0-0_
  6
CONTINUOUS
 62
    7
 10
1174.4417491185905
 20
1070.618025692766
 40
33.651866139592357
 50
284.95133972167969
 51
295.32809448242187
  0
ARC
  8
_0-0_
  6
CONTINUOUS
 62
    7
 10
1123.9295074457655
 20
1131.5086358463768
 40
113.78000620249155
 50
301.52603149414063
 51
304.95407104492187
  0
ARC
  8
_0-0_
  6
CONTINUOUS
 62
    7
 10
1153.6162238863269
 20
1005.8591269319447
 40
12.699999680390231
 50
183.28778076171878
 51
226.89060974121097
  0
ARC
  8
_0-0_
  6
CONTINUOUS
 62
    7
 10
1136.2580728886496
 20
1005.8591269319447
 40
12.699999680390231
 50
313.109375
 51
356.71220397949219
  0
POINT
  8
_0-0_
 62
    4
 10
954.26026850467588
 20
1240.1029219659927
  0
POINT
  8
_0-0_
 62
    4
 10
1059.2602437606936
 20
1240.1029219659927
  0
POINT
  8
_0-0_
 62
    4
 10
1068.26024870949
 20
1240.1029219659927
  0
POINT
  8
_0-0_
 62
    4
 10
1184.260285000664
 20
967.05858322417441
  0
POINT
  8
_0-0_
 62
    4
 10
1164.2602190167113
 20
967.05858322417441
  0
POINT
  8
_0-0_
 62
    4
 10
1059.2602437606936
 20
967.05858322417441
  0
POINT
  8
_0-0_
 62
    4
 10
1006.760194272729
 20
967.05858322417441
  0
ARC
  8
_0-0_
  6
CONTINUOUS
 62
    7
 10
1054.5795510581297
 20
1152.5431980289818
 40
88.622756958007813
 50
341.92012023925781
 51
18.079864501953146
  0
ARC
  8
_0-0_
  6
CONTINUOUS
 62
    7
 10
1137.2265485099119
 20
1117.638599792898
 40
1.6000000238418577
 50
269.99999999999994
 51
359.99999999999994
  0
LINE
  8
_0-0_
  6
CONTINUOUS
 62
    7
 10
1152.6196528247165
 20
1161.8386005558375
 11
1142.7134841254519
 21
1161.8386005558375
  0
LINE
  8
_0-0_
  6
CONTINUOUS
 62
    7
 10
1152.6196528247165
 20
1141.8386005558373
 11
1152.6196528247165
 21
1161.8386005558375
  0
LINE
  8
_0-0_
  6
CONTINUOUS
 62
    7
 10
1152.6196528247165
 20
1141.8386005558373
 11
1142.5534461310667
 21
1141.8386005558373
  0
LINE
  8
_0-0_
  6
CONTINUOUS
 62
    7
 10
1137.2265485099119
 20
1158.1441272892357
 11
1137.2265485099119
 21
1162.9449161686305
  0
LINE
  8
_0-0_
  6
CONTINUOUS
 62
    7
 10
1137.2265485099119
 20
1135.5403904117941
 11
1137.2265485099119
 21
1158.1441272892357
  0
LINE
  8
_0-0_
  6
CONTINUOUS
 62
    7
 10
1137.2265485099119
 20
1162.9449161686305
 11
1137.2265485099119
 21
1187.6386036075953
  0
LINE
  8
_0-0_
  6
CONTINUOUS
 62
    7
 10
1137.2265485099119
 20
1117.638599792898
 11
1137.2265485099119
 21
1135.5403904117941
  0
LINE
  8
_0-0_
  6
CONTINUOUS
 62
    7
 10
1102.2265504172608
 20
1121.8386005558373
 11
1102.2265504172608
 21
1181.8386005558373
  0
LINE
  8
_0-0_
  6
CONTINUOUS
 62
    7
 10
1138.8265488913817
 20
1117.638599792898
 11
1138.8265488913817
 21
1187.6386036075953
  0
LINE
  8
_0-0_
  6
CONTINUOUS
 62
    7
 10
1137.2265485099119
 20
1187.6386036075953
 11
1138.8265488913817
 21
1187.6386036075953
  0
LINE
  8
_0-0_
  6
CONTINUOUS
 62
    7
 10
1137.2265485099119
 20
1181.8386005558373
 11
1102.2265504172608
 21
1181.8386005558373
  0
LINE
  8
_0-0_
  6
CONTINUOUS
 62
    7
 10
1137.2265485099119
 20
1121.8386005558373
 11
1102.2265504172608
 21
1121.8386005558373
  0
LINE
  8
_0-0_
  6
CONTINUOUS
 62
    7
 10
1110.2283792176595
 20
1117.638599792898
 11
1137.2265485099119
 21
1117.638599792898
  0
ARC
  8
_0-0_
  6
CONTINUOUS
 62
    7
 10
1110.2283792176595
 20
1116.0385997928981
 40
1.6000000000000001
 50
90
 51
180
  0
LINE
  8
_0-0_
  6
CONTINUOUS
 62
    7
 10
1110.22332079036
 20
1074.2594738425762
 11
1110.22332079036
 21
1116.0385994114279
  0
LINE
  8
_0-0_
  6
CONTINUOUS
 62
    7
 10
1137.2265485099119
 20
1116.0385994114279
 11
1110.22332079036
 21
1116.0385994114279
  0
LINE
  8
_0-0_
  6
CONTINUOUS
 62
    7
 10
1108.6233207903601
 20
1036.1221925793793
 11
1108.6233207903601
 21
1116.0385994114279
  0
LINE
  8
_0-0_
  6
CONTINUOUS
 62
    7
 10
1108.6233207903601
 20
1036.1221925793793
 11
1110.2061237226869
 21
1036.1221925793793
  0
LINE
  8
_0-0_
  6
CONTINUOUS
 62
    7
 10
1107.1637776555292
 20
1090.5151567105029
 11
1108.6637578603436
 21
1090.5151567105029
  0
LINE
  8
_0-0_
  6
CONTINUOUS
 62
    7
 10
1108.6637578603436
 20
1074.5152028992695
 11
1108.6637578603436
 21
1090.5151567105029
  0
LINE
  8
_0-0_
  6
CONTINUOUS
 62
    7
 10
1105.6637974507153
 20
1079.5157142749031
 11
1101.6638089979069
 21
1079.5157142749031
  0
LINE
  8
_0-0_
  6
CONTINUOUS
 62
    7
 10
1105.6637974507153
 20
1085.515758814071
 11
1101.6638089979069
 21
1085.515758814071
  0
LINE
  8
_0-0_
  6
CONTINUOUS
 62
    7
 10
1107.1637776555292
 20
1074.5152028992695
 11
1107.1637776555292
 21
1090.5151567105029
  0
LINE
  8
_0-0_
  6
CONTINUOUS
 62
    7
 10
1105.6637974507153
 20
1077.0152111472637
 11
1105.6637974507153
 21
1088.0151484625085
  0
LINE
  8
_0-0_
  6
CONTINUOUS
 62
    7
 10
1101.6638089979069
 20
1088.0151484625085
 11
1105.6109690485823
 21
1088.0151484625085
  0
LINE
  8
_0-0_
  6
CONTINUOUS
 62
    7
 10
1101.6638089979069
 20
1077.0152111472637
 11
1101.6638089979069
 21
1088.0151484625085
  0
LINE
  8
_0-0_
  6
CONTINUOUS
 62
    7
 10
1101.6638089979069
 20
1077.0152111472637
 11
1105.6109690485823
 21
1077.0152111472637
  0
LINE
  8
_0-0_
  6
CONTINUOUS
 62
    7
 10
1105.6109690485823
 20
1088.0151484625085
 11
1107.1637776555292
 21
1090.5151567105029
  0
LINE
  8
_0-0_
  6
CONTINUOUS
 62
    7
 10
1105.6109690485823
 20
1077.0152111472637
 11
1107.2105437820073
 21
1074.5210177351014
  0
LINE
  8
_0-0_
  6
CONTINUOUS
 62
    7
 10
1107.1835728413403
 20
1074.5152028992695
 11
1108.6637578603436
 21
1074.5152028992695
  0
TEXT
  8
_0-0_
 62
    3
 10
986.76025613268484
 20
1242.6029302139866
 40
25
 41
1
 50
0
  1
105
  0
TEXT
  8
_0-0_
 62
    3
 10
1057.5102462350919
 20
1242.6029302139866
 40
25
 41
1
 50
0
  1
9
  0
TEXT
  8
_0-0_
 62
    3
 10
1006.1352808766671
 20
969.5585914721687
 40
25
 41
1
 50
0
  1
52.5
  0
TEXT
  8
_0-0_
 62
    3
 10
1091.7602313887026
 20
969.5585914721687
 40
25
 41
1
 50
0
  1
105
  0
TEXT
  8
_0-0_
 62
    3
 10
1161.1351901487319
 20
969.5585914721687
 40
25
 41
1
 50
0
  1
20
  0
LINE
  8
_0-0_
  6
CONTINUOUS
 62
    7
 10
1726.9888511435856
 20
1082.529787462506
 11
1726.9888511435856
 21
1096.7298021439356
  0
LINE
  8
_0-0_
  6
CONTINUOUS
 62
    7
 10
1747.3606336010923
 20
1084.1297952156206
 11
1738.9888783619665
 21
1084.1297952156206
  0
LINE
  8
_0-0_
  6
CONTINUOUS
 62
    7
 10
1747.3606336010923
 20
1095.129794390821
 11
1738.9888783619665
 21
1095.129794390821
  0
LINE
  8
_0-0_
  6
CONTINUOUS
 62
    7
 10
1738.9888783619665
 20
1088.2961869491508
 11
1738.9888783619665
 21
1096.7298021439356
  0
LINE
  8
_0-0_
  6
CONTINUOUS
 62
    7
 10
1738.9888783619665
 20
1082.529787462506
 11
1738.9888783619665
 21
1088.2961869491508
  0
LINE
  8
_0-0_
  6
CONTINUOUS
 62
    7
 10
1738.9888783619665
 20
1082.529787462506
 11
1715.1168121734634
 21
1082.529787462506
  0
LINE
  8
_0-0_
  6
CONTINUOUS
 62
    7
 10
1738.9888783619665
 20
1096.7298021439356
 11
1714.9888857851611
 21
1096.7298021439356
  0
LINE
  8
_0-0_
  6
CONTINUOUS
 62
    7
 10
1819.9888610411788
 20
1084.1297952156206
 11
1802.3606294770952
 21
1084.1297952156206
  0
LINE
  8
_0-0_
  6
CONTINUOUS
 62
    7
 10
1819.9888610411788
 20
1084.1297952156206
 11
1819.9888610411788
 21
1095.129794390821
  0
LINE
  8
_0-0_
  6
CONTINUOUS
 62
    7
 10
1819.9888610411788
 20
1095.129794390821
 11
1802.3606294770952
 21
1095.129794390821
  0
LINE
  8
_0-0_
  6
CONTINUOUS
 62
    7
 10
1695.5866344126948
 20
1036.5350855615084
 11
1695.5866344126948
 21
1114.9347850046038
  0
LINE
  8
_0-0_
  6
CONTINUOUS
 62
    7
 10
1695.5866344126948
 20
1114.9347850046038
 11
1693.9606454782038
 21
1114.9347850046038
  0
LINE
  8
_0-0_
  6
CONTINUOUS
 62
    7
 10
1705.5668722188602
 20
1113.8298115466487
 11
1712.9108861546711
 21
1113.8298115466487
  0
LINE
  8
_0-0_
  6
CONTINUOUS
 62
    7
 10
1718.5969295589152
 20
1103.9799126670562
 11
1712.9108861546711
 21
1113.8298115466487
  0
LINE
  8
_0-0_
  6
CONTINUOUS
 62
    7
 10
1697.8888763824477
 20
1100.5293334104315
 11
1705.5668722188602
 21
1113.8298115466487
  0
LINE
  8
_0-0_
  6
CONTINUOUS
 62
    7
 10
1697.8888763824477
 20
1065.4298089897704
 11
1697.8888763824477
 21
1100.5293334104315
  0
LINE
  8
_0-0_
  6
CONTINUOUS
 62
    7
 10
1703.5749197866921
 20
1114.9796953324121
 11
1695.8969239502792
 21
1101.6792171961947
  0
LINE
  8
_0-0_
  6
CONTINUOUS
 62
    7
 10
1712.9108861546711
 20
1116.1297956280202
 11
1705.5668722188602
 21
1116.1297956280202
  0
LINE
  8
_0-0_
  6
CONTINUOUS
 62
    7
 10
1714.902776726884
 20
1114.9796953324121
 11
1720.5888819910838
 21
1105.1297964528196
  0
LINE
  8
_0-0_
  6
CONTINUOUS
 62
    7
 10
1718.5969295589152
 20
1103.9799126670562
 11
1720.5888819910838
 21
1105.1297964528196
  0
LINE
  8
_0-0_
  6
CONTINUOUS
 62
    7
 10
1703.4888725883704
 20
1072.2297955455404
 11
1703.4888725883704
 21
1107.0297940609012
  0
LINE
  8
_0-0_
  6
CONTINUOUS
 62
    7
 10
1714.9888857851611
 20
1072.2297955455404
 11
1714.9888857851611
 21
1107.0297940609012
  0
LINE
  8
_0-0_
  6
CONTINUOUS
 62
    7
 10
1722.486621710784
 20
1044.5350933971029
 11
1735.4866151123886
 21
1044.5350933971029
  0
LINE
  8
_0-0_
  6
CONTINUOUS
 62
    7
 10
1735.4866151123886
 20
1038.5350797879123
 11
1735.4866151123886
 21
1044.5350933971029
  0
LINE
  8
_0-0_
  6
CONTINUOUS
 62
    7
 10
1732.2366167619873
 20
1038.5350797879123
 11
1732.2366167619873
 21
1044.5350933971029
  0
LINE
  8
_0-0_
  6
CONTINUOUS
 62
    7
 10
1725.7366200611852
 20
1038.5350797879123
 11
1725.7366200611852
 21
1044.5350933971029
  0
LINE
  8
_0-0_
  6
CONTINUOUS
 62
    7
 10
1722.486621710784
 20
1038.5350797879123
 11
1722.486621710784
 21
1044.5350933971029
  0
LINE
  8
_0-0_
  6
CONTINUOUS
 62
    7
 10
1720.9866415059696
 20
1036.5350855615084
 11
1720.9866415059696
 21
1038.5350797879123
  0
LINE
  8
_0-0_
  6
CONTINUOUS
 62
    7
 10
1720.9866415059696
 20
1038.5350797879123
 11
1736.986595317203
 21
1038.5350797879123
  0
LINE
  8
_0-0_
  6
CONTINUOUS
 62
    7
 10
1693.9606454782038
 20
1100.5293334104315
 11
1693.9606454782038
 21
1076.8773340141845
  0
LINE
  8
_0-0_
  6
CONTINUOUS
 62
    7
 10
1747.3649637979884
 20
1079.8982649487814
 11
1788.8353831919917
 21
1079.8982649487814
  0
LINE
  8
_0-0_
  6
CONTINUOUS
 62
    7
 10
1771.8649703963838
 20
1098.0982680830191
 11
1771.8649703963838
 21
1083.8982534015897
  0
LINE
  8
_0-0_
  6
CONTINUOUS
 62
    7
 10
1777.8649530755961
 20
1098.0982680830191
 11
1777.8649530755961
 21
1083.8982534015897
  0
LINE
  8
_0-0_
  6
CONTINUOUS
 62
    7
 10
1798.3649712211832
 20
1098.0982680830191
 11
1798.3649712211832
 21
1083.7598417508029
  0
LINE
  8
_0-0_
  6
CONTINUOUS
 62
    7
 10
1747.3649637979884
 20
1098.0982680830191
 11
1747.3649637979884
 21
1079.8982649487814
  0
LINE
  8
_0-0_
  6
CONTINUOUS
 62
    7
 10
1751.3649522507967
 20
1098.0982680830191
 11
1751.3649522507967
 21
1086.768586274135
  0
LINE
  8
_0-0_
  6
CONTINUOUS
 62
    7
 10
1798.3649712211832
 20
1098.0982680830191
 11
1802.3649596739913
 21
1098.0982680830191
  0
LINE
  8
_0-0_
  6
CONTINUOUS
 62
    7
 10
1802.3649596739913
 20
1098.0982680830191
 11
1802.3649596739913
 21
1079.8982649487814
  0
LINE
  8
_0-0_
  6
CONTINUOUS
 62
    7
 10
1747.3649637979884
 20
1098.0982680830191
 11
1751.3649522507967
 21
1098.0982680830191
  0
LINE
  8
_0-0_
  6
CONTINUOUS
 62
    7
 10
1771.8649703963838
 20
1098.0982680830191
 11
1777.8649530755961
 21
1098.0982680830191
  0
LINE
  8
_0-0_
  6
CONTINUOUS
 62
    7
 10
1751.3649522507967
 20
1098.0982680830191
 11
1798.3649712211832
 21
1098.0982680830191
  0
LINE
  8
_0-0_
  6
CONTINUOUS
 62
    7
 10
1751.3649522507967
 20
1083.8982534015897
 11
1798.7305016991706
 21
1083.8982534015897
  0
LINE
  8
_0-0_
  6
CONTINUOUS
 62
    7
 10
1751.3649522507967
 20
1086.768586274135
 11
1751.3649522507967
 21
1084.0606976451497
  0
LINE
  8
_0-0_
  6
CONTINUOUS
 62
    7
 10
1788.8353831919917
 20
1079.8982649487814
 11
1802.3649596739913
 21
1079.8982649487814
  0
LINE
  8
_0-0_
  6
CONTINUOUS
 62
    7
 10
1745.5606326113329
 20
1076.8247530518747
 11
1802.3606294770952
 21
1076.8247530518747
  0
LINE
  8
_0-0_
  6
CONTINUOUS
 62
    7
 10
1802.3606294770952
 20
1076.8247530518747
 11
1802.3606294770952
 21
1095.7247325143694
  0
LINE
  8
_0-0_
  6
CONTINUOUS
 62
    7
 10
1802.3606294770952
 20
1075.2247452987601
 11
1802.3606294770952
 21
1076.8247530518747
  0
LINE
  8
_0-0_
  6
CONTINUOUS
 62
    7
 10
1745.5606326113329
 20
1043.5350962839007
 11
1763.9606289822154
 21
1043.5350962839007
  0
LINE
  8
_0-0_
  6
CONTINUOUS
 62
    7
 10
1743.9606248582186
 20
1045.1350731070372
 11
1743.9606248582186
 21
1075.2247452987601
  0
LINE
  8
_0-0_
  6
CONTINUOUS
 62
    7
 10
1763.9606289822154
 20
1043.5350962839007
 11
1763.9606289822154
 21
1045.1350731070372
  0
LINE
  8
_0-0_
  6
CONTINUOUS
 62
    7
 10
1747.3606336010923
 20
1095.7247325143694
 11
1747.3606336010923
 21
1076.593922627334
  0
LINE
  8
_0-0_
  6
CONTINUOUS
 62
    7
 10
1745.5606326113329
 20
1045.1350731070372
 11
1745.5606326113329
 21
1075.2247452987601
  0
LINE
  8
_0-0_
  6
CONTINUOUS
 62
    7
 10
1749.1383650068144
 20
1034.935077808394
 11
1749.1383650068144
 21
1035.6933262148814
  0
LINE
  8
_0-0_
  6
CONTINUOUS
 62
    7
 10
1764.1383526348231
 20
1036.9751263560872
 11
1764.1383526348231
 21
1037.4881618983432
  0
LINE
  8
_0-0_
  6
CONTINUOUS
 62
    7
 10
1695.5866344126948
 20
1036.5350855615084
 11
1764.1383526348231
 21
1037.5177309571482
  0
LINE
  8
_0-0_
  6
CONTINUOUS
 62
    7
 10
1764.1383526348231
 20
1035.9446013547674
 11
1764.1383526348231
 21
1037.5177309571482
  0
LINE
  8
_0-0_
  6
CONTINUOUS
 62
    7
 10
1695.5866344126948
 20
1034.935077808394
 11
1764.1383526348231
 21
1035.9446013547674
  0
LINE
  8
_0-0_
  6
CONTINUOUS
 62
    7
 10
1697.8888763824477
 20
1065.4298089897704
 11
1718.9606042382331
 21
1065.4298089897704
  0
LINE
  8
_0-0_
  6
CONTINUOUS
 62
    7
 10
1718.9606042382331
 20
1063.1297939784213
 11
1718.9606042382331
 21
1065.4298089897704
  0
LINE
  8
_0-0_
  6
CONTINUOUS
 62
    7
 10
1697.8888763824477
 20
1063.1297939784213
 11
1718.9606042382331
 21
1063.1297939784213
  0
LINE
  8
_0-0_
  6
CONTINUOUS
 62
    7
 10
1736.986595317203
 20
1038.5350797879123
 11
1736.986595317203
 21
1037.0765457533896
  0
LINE
  8
_0-0_
  6
CONTINUOUS
 62
    4
 10
1851.4328332421394
 20
1045.1350731070372
 11
1851.4328332421394
 21
1075.2247452987601
  0
LINE
  8
_0-0_
  6
CONTINUOUS
 62
    7
 10
1745.5606326113329
 20
1075.2247452987601
 11
1907.6746058680369
 21
1075.2247452987601
  0
LINE
  8
_0-0_
  6
CONTINUOUS
 62
    7
 10
1745.5606326113329
 20
1045.1350731070372
 11
1907.3007861559909
 21
1045.1350731070372
  0
LINE
  8
_0-0_
  6
CONTINUOUS
 62
    4
 10
1768.9606454782038
 20
1231.4697552623372
 11
1684.000202857849
 21
1231.4697552623372
  0
LINE
  8
_0-0_
  6
CONTINUOUS
 62
    4
 10
1768.9606454782038
 20
1231.4697552623372
 11
1768.9606454782038
 21
1197.1506560422674
  0
LINE
  8
_0-0_
  6
CONTINUOUS
 62
    4
 10
1684.000202857849
 20
1231.4697552623372
 11
1684.000202857849
 21
1197.1506560422674
  0
LINE
  8
_0-0_
  6
CONTINUOUS
 62
    7
 10
1771.3549969219325
 20
1040.9346274679165
 11
1789.5675576271692
 21
1010.2335314744623
  0
LINE
  8
_0-0_
  6
CONTINUOUS
 62
    7
 10
1789.5675576271692
 20
1010.2335314744623
 11
1873.4174903235373
 21
1010.2335314744623
  0
LINE
  8
_0-0_
  6
CONTINUOUS
 62
    7
 10
1767.1780271359844
 20
1034.935077808394
 11
1678.9605959902392
 21
1034.935077808394
  0
LINE
  8
_0-0_
  6
CONTINUOUS
 62
    7
 10
1768.9606454782038
 20
899.93508090139153
 11
1768.9606454782038
 21
1034.935077808394
  0
LINE
  8
_0-0_
  6
CONTINUOUS
 62
    7
 10
1528.960626920217
 20
1096.3938716547304
 11
1678.9605959902392
 21
1246.3938407247526
  0
LINE
  8
_0-0_
  6
CONTINUOUS
 62
    7
 10
1528.960626920217
 20
1089.3227838432861
 11
1678.9605959902392
 21
1239.3228147732639
  0
LINE
  8
_0-0_
  6
CONTINUOUS
 62
    7
 10
1528.960626920217
 20
1082.2517269618197
 11
1678.9605959902392
 21
1232.2517269618197
  0
ARC
  8
_0-0_
  6
CONTINUOUS
 62
    7
 10
1697.8888763824477
 20
1100.5293334104315
 40
2.3000000296412288
 50
150.00332641601565
 51
179.99998474121097
  0
ARC
  8
_0-0_
  6
CONTINUOUS
 62
    7
 10
1697.8888763824477
 20
1065.4298089897704
 40
2.3000000296412288
 50
179.99998474121097
 51
270
  0
ARC
  8
_0-0_
  6
CONTINUOUS
 62
    7
 10
1705.5668722188602
 20
1113.8298115466487
 40
2.3000000296412288
 50
90
 51
150.00334167480469
  0
ARC
  8
_0-0_
  6
CONTINUOUS
 62
    7
 10
1712.9108861546711
 20
1113.8298115466487
 40
2.3000000296412288
 50
29.996658325195352
 51
89.99998474121098
  0
ARC
  8
_0-0_
  6
CONTINUOUS
 62
    7
 10
1709.2388791867656
 20
1106.9725736019168
 40
5.7502844849148316
 50
0.5702514648437691
 51
179.42973327636722
  0
ARC
  8
_0-0_
  6
CONTINUOUS
 62
    7
 10
1709.2388791867656
 20
1072.3017077439936
 40
5.7504497669838575
 50
180.71636962890628
 51
359.28364562988281
  0
ARC
  8
_0-0_
  6
CONTINUOUS
 62
    7
 10
1695.5866344126948
 20
1036.5350855615084
 40
1.6000000206199851
 50
180
 51
270
  0
ARC
  8
_0-0_
  6
CONTINUOUS
 62
    7
 10
1745.5606326113329
 20
1075.2247452987601
 40
1.6000000206199851
 50
90
 51
180
  0
ARC
  8
_0-0_
  6
CONTINUOUS
 62
    7
 10
1745.5606326113329
 20
1045.1350731070372
 40
1.6000000206199851
 50
180
 51
270
  0
ARC
  8
_0-0_
  6
CONTINUOUS
 62
    7
 10
1797.2150565054421
 20
995.31232249998482
 40
49.721072171185476
 50
94.455978393554688
 51
119.31524658203124
  0
ARC
  8
_0-0_
  6
CONTINUOUS
 62
    7
 10
1794.7321216052096
 20
986.23947745340024
 40
58.70887524372823
 50
91.596969604492188
 51
112.15451049804687
  0
ARC
  8
_0-0_
  6
CONTINUOUS
 62
    7
 10
1763.8838607772432
 20
1036.7012104724299
 40
0.8270845219895646
 50
287.91964721679687
 51
72.080337524414077
  0
ARC
  8
_0-0_
  6
CONTINUOUS
 62
    7
 10
1764.5483604209294
 20
881.75049636110191
 40
156.7851092364337
 50
89.1484375
 51
97.479873657226577
  0
ARC
  8
_0-0_
  6
CONTINUOUS
 62
    7
 10
1758.1963327340632
 20
1071.0308877449174
 40
33.651866139592357
 50
284.95133972167969
 51
295.32809448242187
  0
ARC
  8
_0-0_
  6
CONTINUOUS
 62
    7
 10
1707.6840910612377
 20
1131.9214669685502
 40
113.78000620249155
 50
301.52603149414063
 51
304.95407104492187
  0
POINT
  8
_0-0_
 62
    4
 10
1851.4328332421394
 20
1045.1350731070372
  0
POINT
  8
_0-0_
 62
    4
 10
1851.4328332421394
 20
1075.2247452987601
  0
POINT
  8
_0-0_
 62
    4
 10
1768.9606454782038
 20
1231.4697552623372
  0
POINT
  8
_0-0_
 62
    4
 10
1684.000202857849
 20
1231.4697552623372
  0
ARC
  8
_0-0_
  6
CONTINUOUS
 62
    7
 10
1637.7256176002184
 20
1152.944380273927
 40
88.622756958007813
 50
341.92012023925781
 51
18.079864501953146
  0
ARC
  8
_0-0_
  6
CONTINUOUS
 62
    7
 10
1720.3726150520004
 20
1118.0397820378432
 40
1.6000000238418577
 50
269.99999999999994
 51
359.99999999999994
  0
ARC
  8
_0-0_
  6
CONTINUOUS
 62
    7
 10
1694.0740482337633
 20
1116.4397816563733
 40
1.6000000238418577
 50
89.999999999999972
 51
179.99999999999997
  0
LINE
  8
_0-0_
  6
CONTINUOUS
 62
    7
 10
1735.7657193668047
 20
1162.2397828007827
 11
1725.8595506675401
 21
1162.2397828007827
  0
LINE
  8
_0-0_
  6
CONTINUOUS
 62
    7
 10
1735.7657193668047
 20
1142.2397828007825
 11
1735.7657193668047
 21
1162.2397828007827
  0
LINE
  8
_0-0_
  6
CONTINUOUS
 62
    7
 10
1735.7657193668047
 20
1142.2397828007825
 11
1725.6995126731549
 21
1142.2397828007825
  0
LINE
  8
_0-0_
  6
CONTINUOUS
 62
    7
 10
1720.3726150520004
 20
1135.9415726567395
 11
1720.3726150520004
 21
1158.5453095341811
  0
LINE
  8
_0-0_
  6
CONTINUOUS
 62
    7
 10
1720.3726150520004
 20
1118.0397820378432
 11
1720.3726150520004
 21
1135.9415726567395
  0
LINE
  8
_0-0_
  6
CONTINUOUS
 62
    7
 10
1685.3726169593494
 20
1122.2397828007825
 11
1685.3726169593494
 21
1182.2397828007825
  0
LINE
  8
_0-0_
  6
CONTINUOUS
 62
    7
 10
1694.0740482337633
 20
1118.0397820378432
 11
1720.3726150520004
 21
1118.0397820378432
  0
LINE
  8
_0-0_
  6
CONTINUOUS
 62
    7
 10
1721.9726154334699
 20
1118.0397820378432
 11
1721.9726154334699
 21
1188.0397858525405
  0
LINE
  8
_0-0_
  6
CONTINUOUS
 62
    7
 10
1720.3726150520004
 20
1182.2397828007825
 11
1685.3726169593494
 21
1182.2397828007825
  0
LINE
  8
_0-0_
  6
CONTINUOUS
 62
    7
 10
1720.3726150520004
 20
1122.2397828007825
 11
1685.3726169593494
 21
1122.2397828007825
  0
LINE
  8
_0-0_
  6
CONTINUOUS
 62
    7
 10
1720.3726150520004
 20
1116.4397816563733
 11
1693.9606454782038
 21
1116.4397816563733
  0
LINE
  8
_0-0_
  6
CONTINUOUS
 62
    7
 10
1693.9606454782038
 20
1036.5350855615084
 11
1693.9606454782038
 21
1116.4397816563733
  0
LINE
  8
_0-0_
  6
CONTINUOUS
 62
    7
 10
1690.8499161546081
 20
1090.9279878326761
 11
1692.349896359422
 21
1090.9279878326761
  0
LINE
  8
_0-0_
  6
CONTINUOUS
 62
    7
 10
1689.3499359497937
 20
1079.9285763270541
 11
1685.3499474969858
 21
1079.9285763270541
  0
LINE
  8
_0-0_
  6
CONTINUOUS
 62
    7
 10
1689.3499359497937
 20
1085.9285899362444
 11
1685.3499474969858
 21
1085.9285899362444
  0
LINE
  8
_0-0_
  6
CONTINUOUS
 62
    7
 10
1690.8499161546081
 20
1074.9280030914651
 11
1690.8499161546081
 21
1090.9279878326761
  0
LINE
  8
_0-0_
  6
CONTINUOUS
 62
    7
 10
1689.3499359497937
 20
1077.4280113394591
 11
1689.3499359497937
 21
1088.4280105146597
  0
LINE
  8
_0-0_
  6
CONTINUOUS
 62
    7
 10
1685.3499474969858
 20
1088.4280105146597
 11
1689.2971694076168
 21
1088.4280105146597
  0
LINE
  8
_0-0_
  6
CONTINUOUS
 62
    7
 10
1685.3499474969858
 20
1077.4280113394591
 11
1685.3499474969858
 21
1088.4280105146597
  0
LINE
  8
_0-0_
  6
CONTINUOUS
 62
    7
 10
1685.3499474969858
 20
1077.4280113394591
 11
1689.2971694076168
 21
1077.4280113394591
  0
LINE
  8
_0-0_
  6
CONTINUOUS
 62
    7
 10
1689.2971694076168
 20
1088.4280105146597
 11
1690.8499161546081
 21
1090.9279878326761
  0
LINE
  8
_0-0_
  6
CONTINUOUS
 62
    7
 10
1689.2971694076168
 20
1077.4280113394591
 11
1690.8967441410416
 21
1074.9338488572748
  0
LINE
  8
_0-0_
  6
CONTINUOUS
 62
    7
 10
1690.8696494804633
 20
1074.9280030914651
 11
1692.349896359422
 21
1074.9280030914651
  0
LINE
  8
_0-0_
  6
CONTINUOUS
 62
    7
 10
1720.3726150520004
 20
1188.0397858525405
 11
1721.9726154334699
 21
1188.0397858525405
  0
LINE
  8
_0-0_
  6
CONTINUOUS
 62
    7
 10
1720.3726150520004
 20
1158.5453095341811
 11
1720.3726150520004
 21
1188.0397858525405
  0
LINE
  8
_0-0_
  6
CONTINUOUS
 62
    7
 10
1728.9866184115863
 20
1044.9561762643989
 11
1728.9866184115863
 21
1016.5975327887284
  0
LINE
  8
_0-0_
  6
CONTINUOUS
 62
    4
 10
1768.9606454782038
 20
986.42102755179712
 11
1728.9866184115863
 21
986.42102755179712
  0
POINT
  8
_0-0_
 62
    4
 10
1768.9606454782038
 20
986.42102755179712
  0
POINT
  8
_0-0_
 62
    4
 10
1728.9866184115863
 20
986.42102755179712
  0
LINE
  8
_0-0_
  6
CONTINUOUS
 62
    4
 10
1768.9606454782038
 20
986.42102755179712
 11
1768.9606454782038
 21
1009.6896580959369
  0
LINE
  8
_0-0_
  6
CONTINUOUS
 62
    4
 10
1728.9866184115863
 20
986.42102755179712
 11
1728.9866184115863
 21
1009.6896580959369
  0
LINE
  8
_0-0_
  6
CONTINUOUS
 62
    7
 10
1692.3606454782039
 20
1036.5350855615084
 11
1692.3606454782039
 21
1116.4397816563733
  0
LINE
  8
_0-0_
  6
CONTINUOUS
 62
    7
 10
1692.3606454782039
 20
1036.5350855615084
 11
1693.9535934432588
 21
1036.5350855615084
  0
LINE
  8
_0-0_
  6
CONTINUOUS
 62
    7
 10
1768.9606454782038
 20
899.93508090139153
 11
1528.960626920217
 21
899.93508090139153
  0
LINE
  8
_0-0_
  6
CONTINUOUS
 62
    7
 10
1686.0552155273358
 20
899.93508090139176
 11
1768.9606454782038
 21
982.84045846981712
  0
LINE
  8
_0-0_
  6
CONTINUOUS
 62
    7
 10
1693.1262989689151
 20
899.93508090139153
 11
1768.9606454782038
 21
975.76940158835055
  0
LINE
  8
_0-0_
  6
CONTINUOUS
 62
    7
 10
1700.1973816727109
 20
899.93508090139153
 11
1768.9606454782038
 21
968.6983447068842
  0
LINE
  8
_0-0_
  6
CONTINUOUS
 62
    7
 10
1768.9606454782038
 20
1034.935077808394
 11
1813.9606454782038
 21
1034.935077808394
  0
LINE
  8
_0-0_
  6
CONTINUOUS
 62
    7
 10
1813.9606454782038
 20
854.93508090139153
 11
1528.960626920217
 21
854.93508090139153
  0
LINE
  8
_0-0_
  6
CONTINUOUS
 62
    7
 10
1813.9606454782038
 20
1034.935077808394
 11
1813.9606454782038
 21
854.93508090139153
  0
LINE
  8
_0-0_
  6
CONTINUOUS
 62
    7
 10
1805.9188755124587
 20
931.40921193657164
 11
1853.8261354728786
 21
883.50195197615176
  0
LINE
  8
_0-0_
  6
CONTINUOUS
 62
    7
 10
1853.8261354728786
 20
883.50195197615176
 11
2016.6358110037613
 21
883.50195197615176
  0
LINE
  8
_0-0_
  6
CONTINUOUS
 62
    7
 10
1528.960626920217
 20
899.93508090139153
 11
1528.960626920217
 21
1313.3588423761487
  0
LINE
  8
_0-0_
  6
CONTINUOUS
 62
    7
 10
1678.9605959902392
 20
1034.935077808394
 11
1678.9605959902392
 21
1313.3588423761487
  0
TEXT
  8
_0-0_
 62
    3
 10
1859.0814051088882
 20
885.0128224705968
 40
30
 41
1
 50
0
  1
ﾀｲﾙ・石等
  0
TEXT
  8
_0-0_
 62
    3
 10
1797.0538391510024
 20
1010.2335314744623
 40
25
 41
1
 50
0
  1
アルマシール
  0
TEXT
  8
_0-0_
 62
    3
 10
1735.8486319448953
 20
988.92102755179712
 40
25
 41
1
 50
0
  1
40
  0
TEXT
  8
_0-0_
 62
    7
 10
1846.8371952762927
 20
1047.6621492096292
 40
20
 41
1
 50
90
  1
30
  0
LINE
  8
_0-0_
  6
CONTINUOUS
 62
    4
 10
1185.1838541386496
 20
1231.4971617278088
 11
1101.6638089979069
 21
1231.4971617278088
  0
POINT
  8
_0-0_
 62
    4
 10
1185.1838541386496
 20
1231.4971617278088
  0
POINT
  8
_0-0_
 62
    4
 10
1101.6638089979069
 20
1231.4971617278088
  0
LINE
  8
_0-0_
  6
CONTINUOUS
 62
    4
 10
1185.1838541386496
 20
1231.4971617278088
 11
1185.1838541386496
 21
1197.1781243676949
  0
LINE
  8
_0-0_
  6
CONTINUOUS
 62
    4
 10
1101.6638089979069
 20
1231.4971617278088
 11
1101.6638089979069
 21
1197.1781243676949
  0
TEXT
  8
_0-0_
 62
    3
 10
1130.2988315682783
 20
1233.9971617278088
 40
25
 41
1
 50
0
  1
85
  0
TEXT
  8
_0-0_
 62
    3
 10
611.53032869906042
 20
587.0541959195524
 40
25
 41
1
 50
0
  1
85
  0
TEXT
  8
_0-0_
 62
    3
 10
432.64517745902015
 20
1239.9972145149709
 40
25
 41
1
 50
0
  1
85
  0
TEXT
  8
_0-0_
 62
    3
 10
1722.2304018984423
 20
1239.9697461895437
 40
25
 41
1
 50
0
  1
85
  0
LINE
  8
_0-0_
  6
CONTINUOUS
 62
    7
 10
1268.731877048886
 20
429.77344478262927
 11
1268.731877048886
 21
443.97342853408099
  0
LINE
  8
_0-0_
  6
CONTINUOUS
 62
    7
 10
1289.1035976464366
 20
431.37345253574375
 11
1280.731842407311
 21
431.37345253574375
  0
LINE
  8
_0-0_
  6
CONTINUOUS
 62
    7
 10
1289.1035976464366
 20
442.37345171094432
 11
1280.731842407311
 21
442.37345171094432
  0
LINE
  8
_0-0_
  6
CONTINUOUS
 62
    7
 10
1280.731842407311
 20
435.53984426927411
 11
1280.731842407311
 21
443.97342853408099
  0
LINE
  8
_0-0_
  6
CONTINUOUS
 62
    7
 10
1280.731842407311
 20
429.77344478262927
 11
1280.731842407311
 21
435.53984426927411
  0
LINE
  8
_0-0_
  6
CONTINUOUS
 62
    7
 10
1280.731842407311
 20
429.77344478262927
 11
1256.8598380787637
 21
429.77344478262927
  0
LINE
  8
_0-0_
  6
CONTINUOUS
 62
    7
 10
1280.731842407311
 20
443.97342853408099
 11
1256.7319116904612
 21
443.97342853408099
  0
LINE
  8
_0-0_
  6
CONTINUOUS
 62
    7
 10
1237.3296603179951
 20
383.7787119516538
 11
1237.3296603179951
 21
462.17844232472709
  0
LINE
  8
_0-0_
  6
CONTINUOUS
 62
    7
 10
1237.3296603179951
 20
462.17844232472709
 11
1235.7036095235483
 21
462.17844232472709
  0
LINE
  8
_0-0_
  6
CONTINUOUS
 62
    7
 10
1247.3098981241606
 20
461.07343793679422
 11
1254.6539120599714
 21
461.07343793679422
  0
LINE
  8
_0-0_
  6
CONTINUOUS
 62
    7
 10
1260.3399554642156
 20
451.22356998717953
 11
1254.6539120599714
 21
461.07343793679422
  0
LINE
  8
_0-0_
  6
CONTINUOUS
 62
    7
 10
1239.6318404277922
 20
447.77299073055474
 11
1247.3098981241606
 21
461.07343793679422
  0
LINE
  8
_0-0_
  6
CONTINUOUS
 62
    7
 10
1239.6318404277922
 20
412.6734353799161
 11
1239.6318404277922
 21
447.77299073055474
  0
LINE
  8
_0-0_
  6
CONTINUOUS
 62
    7
 10
1245.3178838320364
 20
462.22332172255756
 11
1237.6399498555795
 21
448.92287451631807
  0
LINE
  8
_0-0_
  6
CONTINUOUS
 62
    7
 10
1254.6539120599714
 20
463.37345294814349
 11
1247.3098981241606
 21
463.37345294814349
  0
LINE
  8
_0-0_
  6
CONTINUOUS
 62
    7
 10
1256.6458026321843
 20
462.22332172255756
 11
1262.3318460364283
 21
452.37345377294287
  0
LINE
  8
_0-0_
  6
CONTINUOUS
 62
    7
 10
1260.3399554642156
 20
451.22356998717953
 11
1262.3318460364283
 21
452.37345377294287
  0
LINE
  8
_0-0_
  6
CONTINUOUS
 62
    7
 10
1245.2318984936708
 20
419.47345286566355
 11
1245.2318984936708
 21
454.27345138102459
  0
LINE
  8
_0-0_
  6
CONTINUOUS
 62
    7
 10
1256.7319116904612
 20
419.47345286566355
 11
1256.7319116904612
 21
454.27345138102459
  0
LINE
  8
_0-0_
  6
CONTINUOUS
 62
    7
 10
1289.1079278433331
 20
427.14192226890469
 11
1330.5784709572476
 21
427.14192226890469
  0
LINE
  8
_0-0_
  6
CONTINUOUS
 62
    7
 10
1313.6079344417283
 20
445.34192540314234
 11
1313.6079344417283
 21
431.14191072171297
  0
LINE
  8
_0-0_
  6
CONTINUOUS
 62
    7
 10
1319.6079789808962
 20
445.34192540314234
 11
1319.6079789808962
 21
431.14191072171297
  0
LINE
  8
_0-0_
  6
CONTINUOUS
 62
    7
 10
1289.1079278433331
 20
445.34192540314234
 11
1289.1079278433331
 21
427.14192226890469
  0
LINE
  8
_0-0_
  6
CONTINUOUS
 62
    7
 10
1293.1079162961414
 20
445.34192540314234
 11
1293.1079162961414
 21
434.01221266428053
  0
LINE
  8
_0-0_
  6
CONTINUOUS
 62
    7
 10
1289.1079278433331
 20
445.34192540314234
 11
1293.1079162961414
 21
445.34192540314234
  0
LINE
  8
_0-0_
  6
CONTINUOUS
 62
    7
 10
1313.6079344417283
 20
445.34192540314234
 11
1319.6079789808962
 21
445.34192540314234
  0
LINE
  8
_0-0_
  6
CONTINUOUS
 62
    7
 10
1293.1079162961414
 20
434.01221266428053
 11
1293.1079162961414
 21
431.30435496527292
  0
LINE
  8
_0-0_
  6
CONTINUOUS
 62
    7
 10
1287.3035966566774
 20
390.77872267404609
 11
1305.7035930275601
 21
390.77872267404609
  0
LINE
  8
_0-0_
  6
CONTINUOUS
 62
    7
 10
1285.7036507635189
 20
392.37873042716052
 11
1285.7036507635189
 21
422.46840261888349
  0
LINE
  8
_0-0_
  6
CONTINUOUS
 62
    7
 10
1305.7035930275601
 20
390.77872267404609
 11
1305.7035930275601
 21
392.37873042716052
  0
LINE
  8
_0-0_
  6
CONTINUOUS
 62
    7
 10
1289.1035976464366
 20
442.96838983449271
 11
1289.1035976464366
 21
423.83757994745724
  0
LINE
  8
_0-0_
  6
CONTINUOUS
 62
    7
 10
1287.3035966566774
 20
392.37873042716052
 11
1287.3035966566774
 21
422.46840261888349
  0
LINE
  8
_0-0_
  6
CONTINUOUS
 62
    7
 10
1305.8813785401235
 20
384.21878367621042
 11
1305.8813785401235
 21
384.73178828848864
  0
LINE
  8
_0-0_
  6
CONTINUOUS
 62
    7
 10
1237.3296603179951
 20
383.7787119516538
 11
1305.8813785401235
 21
384.7613573472936
  0
LINE
  8
_0-0_
  6
CONTINUOUS
 62
    7
 10
1305.8813785401235
 20
383.18825867489068
 11
1305.8813785401235
 21
384.7613573472936
  0
LINE
  8
_0-0_
  6
CONTINUOUS
 62
    7
 10
1237.3296603179951
 20
382.17873512851719
 11
1305.8813785401235
 21
383.18825867489068
  0
LINE
  8
_0-0_
  6
CONTINUOUS
 62
    7
 10
1239.6318404277922
 20
412.6734353799161
 11
1260.7035682835779
 21
412.6734353799161
  0
LINE
  8
_0-0_
  6
CONTINUOUS
 62
    7
 10
1260.7035682835779
 20
410.37345129854464
 11
1260.7035682835779
 21
412.6734353799161
  0
LINE
  8
_0-0_
  6
CONTINUOUS
 62
    7
 10
1239.6318404277922
 20
410.37345129854464
 11
1260.7035682835779
 21
410.37345129854464
  0
LINE
  8
_0-0_
  6
CONTINUOUS
 62
    7
 10
1293.1079162961414
 20
431.14191072171297
 11
1340.1079971264835
 21
431.14191072171297
  0
LINE
  8
_0-0_
  6
CONTINUOUS
 62
    7
 10
1340.1079971264835
 20
445.34192540314234
 11
1340.1079971264835
 21
431.14191072171297
  0
LINE
  8
_0-0_
  6
CONTINUOUS
 62
    7
 10
1266.0146166366185
 20
392.07824569254802
 11
1279.0146100382231
 21
392.07824569254802
  0
LINE
  8
_0-0_
  6
CONTINUOUS
 62
    7
 10
1279.0146100382231
 20
386.07826301333557
 11
1279.0146100382231
 21
392.07824569254802
  0
LINE
  8
_0-0_
  6
CONTINUOUS
 62
    7
 10
1275.7646116878218
 20
386.07826301333557
 11
1275.7646116878218
 21
392.07824569254802
  0
LINE
  8
_0-0_
  6
CONTINUOUS
 62
    7
 10
1269.2646149870195
 20
386.07826301333557
 11
1269.2646149870195
 21
392.07824569254802
  0
LINE
  8
_0-0_
  6
CONTINUOUS
 62
    7
 10
1266.0146166366185
 20
386.07826301333557
 11
1266.0146166366185
 21
392.07824569254802
  0
LINE
  8
_0-0_
  6
CONTINUOUS
 62
    7
 10
1264.5146364318041
 20
384.07823785695365
 11
1264.5146364318041
 21
386.07826301333557
  0
LINE
  8
_0-0_
  6
CONTINUOUS
 62
    7
 10
1264.5146364318041
 20
386.07826301333557
 11
1280.5147139629485
 21
386.07826301333557
  0
LINE
  8
_0-0_
  6
CONTINUOUS
 62
    7
 10
1280.5147139629485
 20
386.07826301333557
 11
1280.5147139629485
 21
384.61969804883495
  0
LINE
  8
_0-0_
  6
CONTINUOUS
 62
    7
 10
1310.7036095235483
 20
382.17873512851719
 11
1237.4125526585779
 21
382.17873512851719
  0
LINE
  8
_0-0_
  6
DASHED2
 62
    7
 10
1276.4903526876108
 20
383.95541491499307
 11
1276.4903526876108
 21
371.95541862659047
  0
LINE
  8
_0-0_
  6
DASHED2
 62
    7
 10
1268.4902520620828
 20
383.95541491499307
 11
1268.4902520620828
 21
371.95541862659047
  0
LINE
  8
_0-0_
  6
DASHED2
 62
    7
 10
1276.4903526876108
 20
382.64042690757651
 11
1268.4902520620828
 21
383.29082248137297
  0
LINE
  8
_0-0_
  6
DASHED2
 62
    7
 10
1276.4903526876108
 20
381.33876972060443
 11
1268.4902520620828
 21
381.98916529440083
  0
LINE
  8
_0-0_
  6
DASHED2
 62
    7
 10
1276.4903526876108
 20
380.0371125336323
 11
1268.4902520620828
 21
380.68753903740657
  0
LINE
  8
_0-0_
  6
DASHED2
 62
    7
 10
1276.4903526876108
 20
378.73548627663797
 11
1268.4902520620828
 21
379.38588185043443
  0
LINE
  8
_0-0_
  6
DASHED2
 62
    7
 10
1276.4903526876108
 20
377.43382908966578
 11
1268.4902520620828
 21
378.08422466346229
  0
LINE
  8
_0-0_
  6
DASHED2
 62
    7
 10
1276.4903526876108
 20
376.1321719026937
 11
1268.4902520620828
 21
376.78259840646797
  0
LINE
  8
_0-0_
  6
DASHED2
 62
    7
 10
1276.4903526876108
 20
374.83054564569943
 11
1268.4902520620828
 21
375.48094121949589
  0
LINE
  8
_0-0_
  6
DASHED2
 62
    7
 10
1276.4903526876108
 20
373.52888845872724
 11
1268.4902520620828
 21
374.17928403252375
  0
LINE
  8
_0-0_
  6
DASHED2
 62
    7
 10
1276.4903526876108
 20
372.22723127175516
 11
1268.4902520620828
 21
372.87765777552943
  0
LINE
  8
_0-0_
  6
DASHED2
 62
    7
 10
1276.4903526876108
 20
371.95541862659047
 11
1268.4902520620828
 21
371.95541862659047
  0
LINE
  8
_0-0_
  6
CONTINUOUS
 62
    7
 10
1308.4036563721547
 20
382.17873512851719
 11
1213.0036039149122
 21
382.17873512851719
  0
LINE
  8
_0-0_
  6
CONTINUOUS
 62
    7
 10
1210.7036507635187
 20
284.47872951988126
 11
1210.7036507635187
 21
379.87872011716797
  0
LINE
  8
_0-0_
  6
CONTINUOUS
 62
    7
 10
1213.0036039149122
 20
284.47872951988126
 11
1213.0036039149122
 21
379.87872011716797
  0
LINE
  8
_0-0_
  6
CONTINUOUS
 62
    7
 10
1308.4036563721547
 20
379.87872011716797
 11
1213.0036039149122
 21
379.87872011716797
  0
LINE
  8
_0-0_
  6
CONTINUOUS
 62
    7
 10
1308.4036563721547
 20
284.47872951988126
 11
1308.4036563721547
 21
379.87872011716797
  0
LINE
  8
_0-0_
  6
CONTINUOUS
 62
    7
 10
1213.0036039149122
 20
284.47872951988126
 11
1308.4036563721547
 21
284.47872951988126
  0
LINE
  8
_0-0_
  6
CONTINUOUS
 62
    7
 10
1110.7035682835776
 20
282.17871450853193
 11
1110.7035682835776
 21
379.87872011716797
  0
LINE
  8
_0-0_
  6
CONTINUOUS
 62
    7
 10
1110.7035682835776
 20
282.17871450853193
 11
1308.4036563721547
 21
282.17871450853193
  0
LINE
  8
_0-0_
  6
CONTINUOUS
 62
    7
 10
1095.7036425155247
 20
267.17872688052307
 11
1310.7036095235483
 21
267.17872688052307
  0
LINE
  8
_0-0_
  6
CONTINUOUS
 62
    7
 10
1310.7036095235483
 20
267.17872688052307
 11
1310.7036095235483
 21
379.87872011716797
  0
LINE
  8
_0-0_
  6
CONTINUOUS
 62
    4
 10
1310.7036095235483
 20
197.20460083797667
 11
1210.7036507635187
 21
197.20460083797667
  0
LINE
  8
_0-0_
  6
CONTINUOUS
 62
    4
 10
1310.7036095235483
 20
197.20460083797667
 11
1310.7036095235483
 21
248.26167407026651
  0
LINE
  8
_0-0_
  6
CONTINUOUS
 62
    4
 10
1210.7036507635187
 20
197.20460083797667
 11
1210.7036507635187
 21
248.26167407026651
  0
LINE
  8
_0-0_
  6
CONTINUOUS
 62
    7
 10
1287.3035966566774
 20
392.37873042716052
 11
1501.902339992298
 21
392.37873042716052
  0
LINE
  8
_0-0_
  6
CONTINUOUS
 62
    7
 10
1287.3035966566774
 20
422.46840261888349
 11
1504.5165417184387
 21
422.46840261888349
  0
LINE
  8
_0-0_
  6
CONTINUOUS
 62
    7
 10
1344.1079855792914
 20
445.34192540314234
 11
1344.1079855792914
 21
427.14192226890469
  0
LINE
  8
_0-0_
  6
CONTINUOUS
 62
    7
 10
1340.1079971264835
 20
445.34192540314234
 11
1344.1079855792914
 21
445.34192540314234
  0
LINE
  8
_0-0_
  6
CONTINUOUS
 62
    7
 10
1293.1079162961414
 20
445.34192540314234
 11
1344.1079855792914
 21
445.34192540314234
  0
LINE
  8
_0-0_
  6
CONTINUOUS
 62
    7
 10
1330.5784709572476
 20
427.14192226890469
 11
1344.1079855792914
 21
427.14192226890469
  0
LINE
  8
_0-0_
  6
CONTINUOUS
 62
    7
 10
1287.3035966566774
 20
424.06837944202016
 11
1344.1036553823956
 21
424.06837944202016
  0
LINE
  8
_0-0_
  6
CONTINUOUS
 62
    7
 10
1344.1036553823956
 20
422.46840261888349
 11
1344.1036553823956
 21
442.96838983449271
  0
LINE
  8
_0-0_
  6
CONTINUOUS
 62
    7
 10
1361.8097067706976
 20
442.37345171094432
 11
1344.1814752066143
 21
442.37345171094432
  0
LINE
  8
_0-0_
  6
CONTINUOUS
 62
    7
 10
1361.8097067706976
 20
431.37345253574375
 11
1361.8097067706976
 21
442.37345171094432
  0
LINE
  8
_0-0_
  6
CONTINUOUS
 62
    7
 10
1361.8097067706976
 20
431.37345253574375
 11
1344.1814752066143
 21
431.37345253574375
  0
ARC
  8
_0-0_
  6
CONTINUOUS
 62
    7
 10
1239.6318404277922
 20
447.77299073055474
 40
2.3000000296412288
 50
150.00332641601565
 51
179.99998474121097
  0
ARC
  8
_0-0_
  6
CONTINUOUS
 62
    7
 10
1239.6318404277922
 20
412.6734353799161
 40
2.3000000296412288
 50
179.99998474121097
 51
270
  0
ARC
  8
_0-0_
  6
CONTINUOUS
 62
    7
 10
1247.3098981241606
 20
461.07343793679422
 40
2.3000000296412288
 50
90
 51
150.00334167480469
  0
ARC
  8
_0-0_
  6
CONTINUOUS
 62
    7
 10
1254.6539120599714
 20
461.07343793679422
 40
2.3000000296412288
 50
29.996658325195352
 51
89.99998474121098
  0
ARC
  8
_0-0_
  6
CONTINUOUS
 62
    7
 10
1250.981905092066
 20
454.21619999206234
 40
5.7502844849148316
 50
0.5702514648437691
 51
179.42973327636722
  0
ARC
  8
_0-0_
  6
CONTINUOUS
 62
    7
 10
1250.981905092066
 20
419.54533413413907
 40
5.7504497669838575
 50
180.71636962890628
 51
359.28364562988281
  0
ARC
  8
_0-0_
  6
CONTINUOUS
 62
    7
 10
1237.3296603179951
 20
383.7787119516538
 40
1.6000000206199851
 50
180
 51
270
  0
ARC
  8
_0-0_
  6
CONTINUOUS
 62
    7
 10
1287.3035966566774
 20
422.46840261888349
 40
1.6000000206199851
 50
90
 51
180
  0
ARC
  8
_0-0_
  6
CONTINUOUS
 62
    7
 10
1287.3035966566774
 20
392.37873042716052
 40
1.6000000206199851
 50
180
 51
270
  0
ARC
  8
_0-0_
  6
CONTINUOUS
 62
    7
 10
1338.9580205507866
 20
342.55597982010818
 40
49.721072171185476
 50
94.455978393554688
 51
119.31524658203124
  0
ARC
  8
_0-0_
  6
CONTINUOUS
 62
    7
 10
1336.4750856505543
 20
333.48310384354568
 40
58.70887524372823
 50
91.596969604492188
 51
112.15451049804687
  0
ARC
  8
_0-0_
  6
CONTINUOUS
 62
    7
 10
1305.6268866825435
 20
383.94483686257547
 40
0.8270845219895646
 50
287.91964721679687
 51
72.080337524414077
  0
ARC
  8
_0-0_
  6
CONTINUOUS
 62
    7
 10
1306.2913863262297
 20
228.99413821623625
 40
156.7851092364337
 50
89.1484375
 51
97.479873657226577
  0
ARC
  8
_0-0_
  6
CONTINUOUS
 62
    7
 10
1299.939358639363
 20
418.27454506504063
 40
33.651866139592357
 50
284.95133972167969
 51
295.32809448242187
  0
ARC
  8
_0-0_
  6
CONTINUOUS
 62
    7
 10
1249.4271169665381
 20
479.16509335869563
 40
113.78000620249155
 50
301.52603149414063
 51
304.95407104492187
  0
ARC
  8
_0-0_
  6
CONTINUOUS
 62
    7
 10
1213.0036039149122
 20
379.87872011716797
 40
2.3000000296412288
 50
90
 51
180
  0
ARC
  8
_0-0_
  6
CONTINUOUS
 62
    7
 10
1308.4036563721547
 20
379.87872011716797
 40
2.3000000296412288
 50
0
 51
90
  0
ARC
  8
_0-0_
  6
CONTINUOUS
 62
    7
 10
1308.4036563721547
 20
284.47872951988126
 40
2.3000000296412288
 50
270
 51
0
  0
ARC
  8
_0-0_
  6
CONTINUOUS
 62
    7
 10
1213.0036039149122
 20
284.47872951988126
 40
2.3000000296412288
 50
180
 51
270
  0
POINT
  8
_0-0_
 62
    4
 10
1310.7036095235483
 20
197.20460083797667
  0
POINT
  8
_0-0_
 62
    4
 10
1210.7036507635187
 20
197.20460083797667
  0
ARC
  8
_0-0_
  6
CONTINUOUS
 62
    7
 10
1179.3349991999823
 20
499.94816448642939
 40
88.622756958007813
 50
341.92012023925781
 51
18.079864501953146
  0
ARC
  8
_0-0_
  6
CONTINUOUS
 62
    7
 10
1261.9819966517643
 20
465.04356625034563
 40
1.6000000238418577
 50
269.99999999999994
 51
359.99999999999994
  0
ARC
  8
_0-0_
  6
CONTINUOUS
 62
    7
 10
1235.6834298335273
 20
463.44356586887557
 40
1.6000000238418577
 50
89.999999999999972
 51
179.99999999999997
  0
LINE
  8
_0-0_
  6
CONTINUOUS
 62
    7
 10
1261.9819966517643
 20
463.44356586887557
 11
1235.768943902131
 21
463.44356586887557
  0
LINE
  8
_0-0_
  6
CONTINUOUS
 62
    7
 10
1277.3751009665689
 20
509.24356701328509
 11
1267.4689322673044
 21
509.24356701328509
  0
LINE
  8
_0-0_
  6
CONTINUOUS
 62
    7
 10
1277.3751009665689
 20
489.24356701328492
 11
1277.3751009665689
 21
509.24356701328509
  0
LINE
  8
_0-0_
  6
CONTINUOUS
 62
    7
 10
1277.3751009665689
 20
489.24356701328492
 11
1267.3088942729191
 21
489.24356701328492
  0
LINE
  8
_0-0_
  6
CONTINUOUS
 62
    7
 10
1261.9819966517643
 20
505.54909374668341
 11
1261.9819966517643
 21
510.34988262607794
  0
LINE
  8
_0-0_
  6
CONTINUOUS
 62
    7
 10
1261.9819966517643
 20
482.94535686924178
 11
1261.9819966517643
 21
505.54909374668341
  0
LINE
  8
_0-0_
  6
CONTINUOUS
 62
    7
 10
1261.9819966517643
 20
510.34988262607794
 11
1261.9819966517643
 21
535.0435700650429
  0
LINE
  8
_0-0_
  6
CONTINUOUS
 62
    7
 10
1261.9819966517643
 20
465.04356625034563
 11
1261.9819966517643
 21
482.94535686924178
  0
LINE
  8
_0-0_
  6
CONTINUOUS
 62
    7
 10
1226.9819985591134
 20
469.24356701328475
 11
1226.9819985591134
 21
529.24356701328475
  0
LINE
  8
_0-0_
  6
CONTINUOUS
 62
    7
 10
1235.6834298335273
 20
465.04356625034563
 11
1261.9819966517643
 21
465.04356625034563
  0
LINE
  8
_0-0_
  6
CONTINUOUS
 62
    7
 10
1263.5819970332341
 20
465.04356625034563
 11
1263.5819970332341
 21
535.0435700650429
  0
LINE
  8
_0-0_
  6
CONTINUOUS
 62
    7
 10
1261.9819966517643
 20
535.0435700650429
 11
1263.5819970332341
 21
535.0435700650429
  0
LINE
  8
_0-0_
  6
CONTINUOUS
 62
    7
 10
1261.9819966517643
 20
529.24356701328475
 11
1226.9819985591134
 21
529.24356701328475
  0
LINE
  8
_0-0_
  6
CONTINUOUS
 62
    7
 10
1261.9819966517643
 20
469.24356701328475
 11
1226.9819985591134
 21
469.24356701328475
  0
LINE
  8
_0-0_
  6
CONTINUOUS
 62
    7
 10
1235.7209303111326
 20
383.7787119516538
 11
1235.7209303111326
 21
463.44356586887557
  0
LINE
  8
_0-0_
  6
CONTINUOUS
 62
    7
 10
1234.1209303111327
 20
383.7787119516538
 11
1234.1209303111327
 21
463.44356586887557
  0
LINE
  8
_0-0_
  6
CONTINUOUS
 62
    7
 10
1234.1209303111327
 20
383.7787119516538
 11
1235.696557488603
 21
383.7787119516538
  0
LINE
  8
_0-0_
  6
CONTINUOUS
 62
    7
 10
1232.6161897212801
 20
438.17164515279927
 11
1234.1161699260942
 21
438.17164515279927
  0
LINE
  8
_0-0_
  6
CONTINUOUS
 62
    7
 10
1234.1161699260942
 20
422.17162948161052
 11
1234.1161699260942
 21
438.17164515279927
  0
LINE
  8
_0-0_
  6
CONTINUOUS
 62
    7
 10
1231.1162095164659
 20
427.17223364717745
 11
1227.1162210636576
 21
427.17223364717745
  0
LINE
  8
_0-0_
  6
CONTINUOUS
 62
    7
 10
1231.1162095164659
 20
433.1722163263899
 11
1227.1162210636576
 21
433.1722163263899
  0
LINE
  8
_0-0_
  6
CONTINUOUS
 62
    7
 10
1232.6161897212801
 20
422.17162948161052
 11
1232.6161897212801
 21
438.17164515279927
  0
LINE
  8
_0-0_
  6
CONTINUOUS
 62
    7
 10
1231.1162095164659
 20
424.67163772960464
 11
1231.1162095164659
 21
435.67163690480521
  0
LINE
  8
_0-0_
  6
CONTINUOUS
 62
    7
 10
1227.1162210636576
 20
435.67163690480521
 11
1231.0635048342444
 21
435.67163690480521
  0
LINE
  8
_0-0_
  6
CONTINUOUS
 62
    7
 10
1227.1162210636576
 20
424.67163772960464
 11
1227.1162210636576
 21
435.67163690480521
  0
LINE
  8
_0-0_
  6
CONTINUOUS
 62
    7
 10
1227.1162210636576
 20
424.67163772960464
 11
1231.0635048342444
 21
424.67163772960464
  0
LINE
  8
_0-0_
  6
CONTINUOUS
 62
    7
 10
1231.0635048342444
 20
435.67163690480521
 11
1232.6161897212801
 21
438.17164515279927
  0
LINE
  8
_0-0_
  6
CONTINUOUS
 62
    7
 10
1231.0635048342444
 20
424.67163772960464
 11
1232.6630795676695
 21
422.17747524742032
  0
LINE
  8
_0-0_
  6
CONTINUOUS
 62
    7
 10
1232.6359849070909
 20
422.17162948161052
 11
1234.1161699260942
 21
422.17162948161052
  0
TEXT
  8
_0-0_
 62
    3
 10
1240.7036301435335
 20
199.70459362098183
 40
25
 41
1
 50
0
  1
100
  0
LINE
  8
_0-0_
  6
CONTINUOUS
 62
    7
 10
1855.1362087073085
 20
380.20908476291913
 11
1855.1362087073085
 21
292.20909136131439
  0
LINE
  8
_0-0_
  6
CONTINUOUS
 62
    7
 10
1853.6361047825831
 20
381.70909589771111
 11
1760.136142723356
 21
381.70909589771111
  0
LINE
  8
_0-0_
  6
CONTINUOUS
 62
    7
 10
1825.1361097313797
 20
292.20909136131439
 11
1825.1361097313797
 21
317.24499075558174
  0
LINE
  8
_0-0_
  6
CONTINUOUS
 62
    7
 10
1826.6362136561054
 20
290.70908022652242
 11
1853.6361047825831
 21
290.70908022652242
  0
LINE
  8
_0-0_
  6
CONTINUOUS
 62
    7
 10
1845.1361757153325
 20
377.90910068154773
 11
1845.1361757153325
 21
380.20908476291913
  0
LINE
  8
_0-0_
  6
CONTINUOUS
 62
    7
 10
1827.4361866026845
 20
377.90910068154773
 11
1845.1361757153325
 21
377.90910068154773
  0
LINE
  8
_0-0_
  6
CONTINUOUS
 62
    7
 10
1827.4361866026845
 20
360.20908063892205
 11
1827.4361866026845
 21
377.90910068154773
  0
LINE
  8
_0-0_
  6
CONTINUOUS
 62
    7
 10
1825.1361097313797
 20
360.20908063892205
 11
1827.4361866026845
 21
360.20908063892205
  0
LINE
  8
_0-0_
  6
CONTINUOUS
 62
    7
 10
1825.1361097313797
 20
380.20908476291913
 11
1853.6361047825831
 21
380.20908476291913
  0
LINE
  8
_0-0_
  6
CONTINUOUS
 62
    7
 10
1853.6361047825831
 20
380.20908476291913
 11
1853.6361047825831
 21
292.20909136131439
  0
LINE
  8
_0-0_
  6
CONTINUOUS
 62
    7
 10
1853.6361047825831
 20
292.20909136131439
 11
1826.6362136561054
 21
292.20909136131439
  0
LINE
  8
_0-0_
  6
CONTINUOUS
 62
    7
 10
1826.6362136561054
 20
320.70908641251788
 11
1826.6362136561054
 21
292.20909136131439
  0
LINE
  8
_0-0_
  6
CONTINUOUS
 62
    7
 10
1826.6362136561054
 20
320.70908641251788
 11
1825.1361097313797
 21
320.70908641251788
  0
LINE
  8
_0-0_
  6
CONTINUOUS
 62
    7
 10
1672.0115633710543
 20
375.7090822885209
 11
1747.0115633710543
 21
300.7090822885209
  0
LINE
  8
_0-0_
  6
CONTINUOUS
 62
    7
 10
1679.0825274625877
 20
375.7090822885209
 11
1754.0825274625877
 21
300.7090822885209
  0
LINE
  8
_0-0_
  6
CONTINUOUS
 62
    7
 10
1825.1361097313797
 20
317.24499075558174
 11
1825.1361097313797
 21
381.70909589771111
  0
LINE
  8
_0-0_
  6
CONTINUOUS
 62
    7
 10
1819.1361889121231
 20
310.70908435051945
 11
1809.1361559201464
 21
300.7090822885209
  0
LINE
  8
_0-0_
  6
CONTINUOUS
 62
    7
 10
1819.1361889121231
 20
310.70908435051945
 11
1819.1361889121231
 21
365.70911115650017
  0
LINE
  8
_0-0_
  6
DASHED3
 62
    7
 10
1825.1361097313797
 20
329.93147790190778
 11
1825.1361097313797
 21
349.02381089652346
  0
LINE
  8
_0-0_
  6
CONTINUOUS
 62
    7
 10
1789.6111743956533
 20
375.7090822885209
 11
1795.6112189348214
 21
381.70909589771111
  0
LINE
  8
_0-0_
  6
CONTINUOUS
 62
    7
 10
1792.4396590081956
 20
375.7090822885209
 11
1798.4395798274522
 21
381.70909589771111
  0
LINE
  8
_0-0_
  6
CONTINUOUS
 62
    7
 10
1819.1361889121231
 20
344.69689257805845
 11
1825.1361097313797
 21
350.69690618724877
  0
LINE
  8
_0-0_
  6
CONTINUOUS
 62
    7
 10
1819.1361889121231
 20
341.86846982547195
 11
1825.1361097313797
 21
347.86848343466215
  0
LINE
  8
_0-0_
  6
CONTINUOUS
 62
    7
 10
1825.1361097313797
 20
316.70909795970971
 11
1823.1361773649314
 21
316.70909795970971
  0
LINE
  8
_0-0_
  6
CONTINUOUS
 62
    7
 10
1764.1361311761643
 20
375.7090822885209
 11
1810.6361361249606
 21
375.7090822885209
  0
LINE
  8
_0-0_
  6
CONTINUOUS
 62
    7
 10
1819.1361889121231
 20
320.70908641251788
 11
1819.1361889121231
 21
367.20909136131439
  0
LINE
  8
_0-0_
  6
CONTINUOUS
 62
    7
 10
1760.136142723356
 20
381.70909589771111
 11
1760.136142723356
 21
379.70910167130705
  0
LINE
  8
_0-0_
  6
CONTINUOUS
 62
    7
 10
1819.1361889121231
 20
337.78265068418705
 11
1781.209726377811
 21
375.7090822885209
  0
LINE
  8
_0-0_
  6
CONTINUOUS
 62
    7
 10
1819.1361889121231
 20
330.71159380272064
 11
1774.1386385663668
 21
375.7090822885209
  0
LINE
  8
_0-0_
  6
CONTINUOUS
 62
    7
 10
1819.1361889121231
 20
365.70911115650017
 11
1809.1361559201464
 21
375.7090822885209
  0
LINE
  8
_0-0_
  6
CONTINUOUS
 62
    4
 10
1855.1362087073085
 20
252.85242665217169
 11
1825.1361097313797
 21
252.85242665217169
  0
LINE
  8
_0-0_
  6
CONTINUOUS
 62
    4
 10
1825.1361097313797
 20
252.85242665217169
 11
1825.1361097313797
 21
280.95456939855575
  0
LINE
  8
_0-0_
  6
CONTINUOUS
 62
    4
 10
1825.1361097313797
 20
252.85242665217169
 11
1760.136142723356
 21
252.85242665217169
  0
LINE
  8
_0-0_
  6
CONTINUOUS
 62
    4
 10
1760.136142723356
 20
252.85242665217169
 11
1760.136142723356
 21
280.95456939855575
  0
LINE
  8
_0-0_
  6
CONTINUOUS
 62
    4
 10
1688.7748690351168
 20
375.7090822885209
 11
1688.7748690351168
 21
300.7090822885209
  0
LINE
  8
_0-0_
  6
CONTINUOUS
 62
    7
 10
1819.1361889121231
 20
310.70908435051945
 11
1825.241519095822
 21
310.70908435051945
  0
LINE
  8
_0-0_
  6
CONTINUOUS
 62
    7
 10
1822.904326251122
 20
302.49346363947637
 11
1825.1361097313797
 21
304.72527804971179
  0
LINE
  8
_0-0_
  6
CONTINUOUS
 62
    7
 10
1820.1311444389387
 20
303.25582573301517
 11
1825.1361097313797
 21
308.26082195543393
  0
LINE
  8
_0-0_
  6
CONTINUOUS
 62
    7
 10
1816.7774688028533
 20
303.43772493262986
 11
1824.048859150721
 21
310.70908435051945
  0
LINE
  8
_0-0_
  6
CONTINUOUS
 62
    7
 10
1812.2087399177185
 20
302.40447809326122
 11
1820.5133152449985
 21
310.70908435051945
  0
LINE
  8
_0-0_
  6
CONTINUOUS
 62
    7
 10
1810.2523569600539
 20
301.82534518838366
 11
1810.4974461043735
 21
301.58034883399705
  0
LINE
  8
_0-0_
  6
CONTINUOUS
 62
    7
 10
1812.0201907728706
 20
303.59311714124476
 11
1812.9372027555564
 21
302.67613608853679
  0
LINE
  8
_0-0_
  6
CONTINUOUS
 62
    7
 10
1813.7879008657756
 20
305.3608890941058
 11
1815.8036693808731
 21
303.34518243896434
  0
LINE
  8
_0-0_
  6
CONTINUOUS
 62
    7
 10
1815.5557346785922
 20
307.12866104696684
 11
1819.3121186260164
 21
303.37224616956507
  0
LINE
  8
_0-0_
  6
CONTINUOUS
 62
    7
 10
1817.3234447714981
 20
308.89640206985007
 11
1824.4003474187741
 21
301.81953035255174
  0
LINE
  8
_0-0_
  6
CONTINUOUS
 62
    7
 10
1819.0912785843148
 20
310.66417402271111
 11
1825.1361097313797
 21
304.61928101569043
  0
LINE
  8
_0-0_
  6
CONTINUOUS
 62
    7
 10
1822.5819121622283
 20
310.70908435051945
 11
1825.1361097313797
 21
308.15482492141257
  0
LINE
  8
_0-0_
  6
CONTINUOUS
 62
    7
 10
1809.1361559201464
 20
375.7090822885209
 11
1610.0861598791835
 21
375.7090822885209
  0
LINE
  8
_0-0_
  6
CONTINUOUS
 62
    7
 10
1809.1361559201464
 20
300.7090822885209
 11
1610.0861598791835
 21
300.7090822885209
  0
ARC
  8
_0-0_
  6
CONTINUOUS
 62
    7
 10
1853.6361047825831
 20
380.20908476291913
 40
1.5000000193312362
 50
0
 51
90
  0
ARC
  8
_0-0_
  6
CONTINUOUS
 62
    7
 10
1826.6362136561054
 20
292.20909136131439
 40
1.5000000193312362
 50
180
 51
270
  0
ARC
  8
_0-0_
  6
CONTINUOUS
 62
    7
 10
1853.6361047825831
 20
292.20909136131439
 40
1.5000000193312362
 50
270
 51
0
  0
ARC
  8
_0-0_
  6
CONTINUOUS
 62
    5
 10
1775.4818656435418
 20
375.7090822885209
 40
0.1500000019331236
 50
90
 51
270
  0
ARC
  8
_0-0_
  6
CONTINUOUS
 62
    5
 10
1775.4818656435418
 20
375.7090822885209
 40
0.1500000019331236
 50
270
 51
90
  0
ARC
  8
_0-0_
  6
CONTINUOUS
 62
    5
 10
1775.4818656435418
 20
375.7090822885209
 40
0.1500000019331236
 50
90
 51
270
  0
ARC
  8
_0-0_
  6
CONTINUOUS
 62
    5
 10
1775.4818656435418
 20
375.7090822885209
 40
0.1500000019331236
 50
270
 51
90
  0
CIRCLE
  8
_0-0_
  6
CONTINUOUS
 62
    7
 10
1824.850069296413
 20
308.42521478759716
 40
0.3000000038662472
  0
ARC
  8
_0-0_
  6
CONTINUOUS
 62
    7
 10
1823.1361773649314
 20
320.70908641251788
 40
4.0000000515499634
 50
180
 51
270
  0
ARC
  8
_0-0_
  6
CONTINUOUS
 62
    7
 10
1764.1361311761643
 20
379.70910167130705
 40
4.0000000515499634
 50
180
 51
270
  0
ARC
  8
_0-0_
  6
CONTINUOUS
 62
    7
 10
1810.6361361249606
 20
367.20909136131439
 40
8.4999996262627686
 50
0
 51
90
  0
ARC
  8
_0-0_
  6
CONTINUOUS
 62
    7
 10
1817.6694893634533
 20
288.87582951059647
 40
14.58917469591708
 50
58.733673095703125
 51
125.79656982421876
  0
POINT
  8
_0-0_
 62
    4
 10
1825.1361097313797
 20
252.85242665217169
  0
POINT
  8
_0-0_
 62
    4
 10
1760.136142723356
 20
252.85242665217169
  0
POINT
  8
_0-0_
 62
    4
 10
1688.7748690351168
 20
375.7090822885209
  0
POINT
  8
_0-0_
 62
    4
 10
1688.7748690351168
 20
300.7090822885209
  0
LINE
  8
_0-0_
  6
CONTINUOUS
 62
    4
 10
1855.1362087073085
 20
252.85242665217169
 11
1855.1362087073085
 21
280.95456939855575
  0
POINT
  8
_0-0_
 62
    4
 10
1855.1362087073085
 20
252.85242665217169
  0
TEXT
  8
_0-0_
 62
    3
 10
1827.0111592193441
 20
255.35243490016575
 40
25
 41
1
 50
0
  1
30
  0
TEXT
  8
_0-0_
 62
    3
 10
1779.5111880873237
 20
255.35243490016575
 40
25
 41
1
 50
0
  1
65
  0
TEXT
  8
_0-0_
 62
    3
 10
1686.2748607871231
 20
325.08409775350981
 40
25
 41
1
 50
90
  1
75
  0
LINE
  8
_0-0_
  6
CONTINUOUS
 62
    7
 10
658.26057227882188
 20
382.01952753840266
 11
568.26052279085729
 21
382.01952753840266
  0
LINE
  8
_0-0_
  6
CONTINUOUS
 62
    7
 10
1803.1140315008054
 20
385.18621307531356
 11
1803.1140315008054
 21
383.72764811081299
  0
LINE
  8
_0-0_
  6
CONTINUOUS
 62
    7
 10
1764.0163125660501
 20
409.78092726582241
 11
1785.0880404218356
 21
409.78092726582241
  0
LINE
  8
_0-0_
  6
CONTINUOUS
 62
    7
 10
1785.0880404218356
 20
409.78092726582241
 11
1785.0880404218356
 21
412.08091134719382
  0
LINE
  8
_0-0_
  6
CONTINUOUS
 62
    7
 10
1764.0163125660501
 20
412.08091134719382
 11
1785.0880404218356
 21
412.08091134719382
  0
LINE
  8
_0-0_
  6
CONTINUOUS
 62
    7
 10
1830.2658506783814
 20
382.59573464216851
 11
1830.2658506783814
 21
384.16883331457137
  0
LINE
  8
_0-0_
  6
CONTINUOUS
 62
    7
 10
1761.7140087363418
 20
383.18618791893158
 11
1830.2658506783814
 21
384.16883331457137
  0
LINE
  8
_0-0_
  6
CONTINUOUS
 62
    7
 10
1830.2658506783814
 20
383.62625964348814
 11
1830.2658506783814
 21
384.13926425576648
  0
LINE
  8
_0-0_
  6
CONTINUOUS
 62
    7
 10
1811.6880687949356
 20
391.78620639443835
 11
1811.6880687949356
 21
421.87584765618345
  0
LINE
  8
_0-0_
  6
CONTINUOUS
 62
    7
 10
1813.4880697846943
 20
442.37586580177049
 11
1813.4880697846943
 21
423.24505591473502
  0
LINE
  8
_0-0_
  6
CONTINUOUS
 62
    7
 10
1830.0880651658179
 20
390.18619864132393
 11
1830.0880651658179
 21
391.78620639443835
  0
LINE
  8
_0-0_
  6
CONTINUOUS
 62
    7
 10
1810.0879991818651
 20
391.78620639443835
 11
1810.0879991818651
 21
421.87584765618345
  0
LINE
  8
_0-0_
  6
CONTINUOUS
 62
    7
 10
1811.6880687949356
 20
390.18619864132393
 11
1830.0880651658179
 21
390.18619864132393
  0
LINE
  8
_0-0_
  6
CONTINUOUS
 62
    7
 10
1868.4880038007418
 20
421.87584765618345
 11
1868.4880038007418
 21
423.47585540929794
  0
LINE
  8
_0-0_
  6
CONTINUOUS
 62
    7
 10
1868.4880038007418
 20
423.47585540929794
 11
1868.4880038007418
 21
442.37586580177049
  0
LINE
  8
_0-0_
  6
CONTINUOUS
 62
    7
 10
1811.6880687949356
 20
423.47585540929794
 11
1868.4880038007418
 21
423.47585540929794
  0
LINE
  8
_0-0_
  6
CONTINUOUS
 62
    7
 10
1854.9628193755939
 20
426.54936730620466
 11
1868.4923339976381
 21
426.54936730620466
  0
LINE
  8
_0-0_
  6
CONTINUOUS
 62
    7
 10
1817.4923884343991
 20
433.4196886315583
 11
1817.4923884343991
 21
430.71183093255064
  0
LINE
  8
_0-0_
  6
CONTINUOUS
 62
    7
 10
1817.4923884343991
 20
430.54938668899069
 11
1864.8579378827731
 21
430.54938668899069
  0
LINE
  8
_0-0_
  6
CONTINUOUS
 62
    7
 10
1817.4923884343991
 20
444.74937044044236
 11
1864.4923455448297
 21
444.74937044044236
  0
LINE
  8
_0-0_
  6
CONTINUOUS
 62
    7
 10
1837.992406579986
 20
444.74937044044236
 11
1843.9924511191543
 21
444.74937044044236
  0
LINE
  8
_0-0_
  6
CONTINUOUS
 62
    7
 10
1813.4923999815908
 20
444.74937044044236
 11
1817.4923884343991
 21
444.74937044044236
  0
LINE
  8
_0-0_
  6
CONTINUOUS
 62
    7
 10
1868.4923339976381
 20
444.74937044044236
 11
1868.4923339976381
 21
426.54936730620466
  0
LINE
  8
_0-0_
  6
CONTINUOUS
 62
    7
 10
1864.4923455448297
 20
444.74937044044236
 11
1868.4923339976381
 21
444.74937044044236
  0
LINE
  8
_0-0_
  6
CONTINUOUS
 62
    7
 10
1817.4923884343991
 20
444.74937044044236
 11
1817.4923884343991
 21
433.4196886315583
  0
LINE
  8
_0-0_
  6
CONTINUOUS
 62
    7
 10
1813.4923999815908
 20
444.74937044044236
 11
1813.4923999815908
 21
426.54936730620466
  0
LINE
  8
_0-0_
  6
CONTINUOUS
 62
    7
 10
1864.4923455448297
 20
444.74937044044236
 11
1864.4923455448297
 21
430.41094410822637
  0
LINE
  8
_0-0_
  6
CONTINUOUS
 62
    7
 10
1843.9924511191543
 20
444.74937044044236
 11
1843.9924511191543
 21
430.54938668899069
  0
LINE
  8
_0-0_
  6
CONTINUOUS
 62
    7
 10
1837.992406579986
 20
444.74937044044236
 11
1837.992406579986
 21
430.54938668899069
  0
LINE
  8
_0-0_
  6
CONTINUOUS
 62
    7
 10
1813.4923999815908
 20
426.54936730620466
 11
1854.9628193755939
 21
426.54936730620466
  0
LINE
  8
_0-0_
  6
CONTINUOUS
 62
    7
 10
1760.0880816618064
 20
412.08091134719382
 11
1760.0880816618064
 21
423.52846730158575
  0
LINE
  8
_0-0_
  6
CONTINUOUS
 62
    7
 10
1760.0880816618064
 20
447.18043576785476
 11
1760.0880816618064
 21
423.52846730158575
  0
LINE
  8
_0-0_
  6
CONTINUOUS
 62
    7
 10
1787.114077689572
 20
385.18621307531356
 11
1803.1140315008054
 21
385.18621307531356
  0
LINE
  8
_0-0_
  6
CONTINUOUS
 62
    7
 10
1787.114077689572
 20
383.18618791893158
 11
1787.114077689572
 21
385.18621307531356
  0
LINE
  8
_0-0_
  6
CONTINUOUS
 62
    7
 10
1788.6140578943866
 20
385.18621307531356
 11
1788.6140578943866
 21
391.18619575452601
  0
LINE
  8
_0-0_
  6
CONTINUOUS
 62
    7
 10
1791.8640562447877
 20
385.18621307531356
 11
1791.8640562447877
 21
391.18619575452601
  0
LINE
  8
_0-0_
  6
CONTINUOUS
 62
    7
 10
1798.3640529455897
 20
385.18621307531356
 11
1798.3640529455897
 21
391.18619575452601
  0
LINE
  8
_0-0_
  6
CONTINUOUS
 62
    7
 10
1801.6140512959914
 20
385.18621307531356
 11
1801.6140512959914
 21
391.18619575452601
  0
LINE
  8
_0-0_
  6
CONTINUOUS
 62
    7
 10
1788.6140578943866
 20
391.18619575452601
 11
1801.6140512959914
 21
391.18619575452601
  0
LINE
  8
_0-0_
  6
CONTINUOUS
 62
    7
 10
1781.1162601088081
 20
418.88092883294127
 11
1781.1162601088081
 21
453.68092734830236
  0
LINE
  8
_0-0_
  6
CONTINUOUS
 62
    7
 10
1769.6162469120172
 20
418.88092883294127
 11
1769.6162469120172
 21
453.68092734830236
  0
LINE
  8
_0-0_
  6
CONTINUOUS
 62
    7
 10
1784.7243038825623
 20
450.6310150244795
 11
1786.716318174686
 21
451.78089881024283
  0
LINE
  8
_0-0_
  6
CONTINUOUS
 62
    7
 10
1781.0302747704422
 20
461.63079768983528
 11
1786.716318174686
 21
451.78089881024283
  0
LINE
  8
_0-0_
  6
CONTINUOUS
 62
    7
 10
1779.0382604783179
 20
462.78092891542121
 11
1771.6942465425068
 21
462.78092891542121
  0
LINE
  8
_0-0_
  6
CONTINUOUS
 62
    7
 10
1769.7023559702943
 20
461.63079768983528
 11
1762.0244219938377
 21
448.33031955361804
  0
LINE
  8
_0-0_
  6
CONTINUOUS
 62
    7
 10
1764.0163125660501
 20
412.08091134719382
 11
1764.0163125660501
 21
447.18043576785476
  0
LINE
  8
_0-0_
  6
CONTINUOUS
 62
    7
 10
1764.0163125660501
 20
447.18043576785476
 11
1771.6942465425068
 21
460.480913904072
  0
LINE
  8
_0-0_
  6
CONTINUOUS
 62
    7
 10
1784.7243038825623
 20
450.6310150244795
 11
1779.0382604783179
 21
460.480913904072
  0
LINE
  8
_0-0_
  6
CONTINUOUS
 62
    7
 10
1771.6942465425068
 20
460.480913904072
 11
1779.0382604783179
 21
460.480913904072
  0
LINE
  8
_0-0_
  6
CONTINUOUS
 62
    7
 10
1761.7140087363418
 20
461.58591829200486
 11
1760.0880816618064
 21
461.58591829200486
  0
LINE
  8
_0-0_
  6
CONTINUOUS
 62
    7
 10
1761.7140087363418
 20
383.18618791893158
 11
1761.7140087363418
 21
461.58591829200486
  0
LINE
  8
_0-0_
  6
CONTINUOUS
 62
    7
 10
1886.1162353648256
 20
441.78089674824434
 11
1868.4880038007418
 21
441.78089674824434
  0
LINE
  8
_0-0_
  6
CONTINUOUS
 62
    7
 10
1886.1162353648256
 20
430.78092850302153
 11
1886.1162353648256
 21
441.78089674824434
  0
LINE
  8
_0-0_
  6
CONTINUOUS
 62
    7
 10
1886.1162353648256
 20
430.78092850302153
 11
1868.4880038007418
 21
430.78092850302153
  0
LINE
  8
_0-0_
  6
CONTINUOUS
 62
    7
 10
1805.1163145455689
 20
443.38090450135871
 11
1781.1162601088081
 21
443.38090450135871
  0
LINE
  8
_0-0_
  6
CONTINUOUS
 62
    7
 10
1805.1163145455689
 20
429.1809207499071
 11
1781.2441864971101
 21
429.1809207499071
  0
LINE
  8
_0-0_
  6
CONTINUOUS
 62
    7
 10
1805.1163145455689
 20
429.1809207499071
 11
1805.1163145455689
 21
434.94732023655195
  0
LINE
  8
_0-0_
  6
CONTINUOUS
 62
    7
 10
1805.1163145455689
 20
434.94732023655195
 11
1805.1163145455689
 21
443.38090450135871
  0
LINE
  8
_0-0_
  6
CONTINUOUS
 62
    7
 10
1813.4880697846943
 20
441.78089674824434
 11
1805.1163145455689
 21
441.78089674824434
  0
LINE
  8
_0-0_
  6
CONTINUOUS
 62
    7
 10
1813.4880697846943
 20
430.78092850302153
 11
1805.1163145455689
 21
430.78092850302153
  0
LINE
  8
_0-0_
  6
CONTINUOUS
 62
    7
 10
1793.1163491871439
 20
429.1809207499071
 11
1793.1163491871439
 21
443.38090450135871
  0
LINE
  8
_0-0_
  6
CONTINUOUS
 62
    7
 10
1830.2658506783814
 20
382.56536140394007
 11
1792.8254836756366
 21
381.84292991177892
  0
LINE
  8
_0-0_
  6
CONTINUOUS
 62
    7
 10
1811.6880687949356
 20
391.78620639443835
 11
1988.798070642486
 21
391.78620639443835
  0
LINE
  8
_0-0_
  6
CONTINUOUS
 62
    7
 10
1811.6880687949356
 20
421.87584765618345
 11
1990.3881189427393
 21
421.87584765618345
  0
ARC
  8
_0-0_
  6
CONTINUOUS
 62
    7
 10
1773.8114653848845
 20
478.5725693259734
 40
113.78000620249155
 50
301.52603149414063
 51
304.95407104492187
  0
ARC
  8
_0-0_
  6
CONTINUOUS
 62
    7
 10
1824.323830777621
 20
417.6820210323184
 40
33.651866139592357
 50
284.95133972167969
 51
295.32809448242187
  0
ARC
  8
_0-0_
  6
CONTINUOUS
 62
    7
 10
1830.0113588208012
 20
383.35231282985325
 40
0.8270845219895646
 50
287.91964721679687
 51
72.080337524414062
  0
ARC
  8
_0-0_
  6
CONTINUOUS
 62
    7
 10
1860.8595577888123
 20
332.89057981082351
 40
58.70887524372823
 50
91.596969604492188
 51
112.15451049804687
  0
ARC
  8
_0-0_
  6
CONTINUOUS
 62
    7
 10
1863.3424926890443
 20
341.96345578738601
 40
49.721072171185476
 50
94.455978393554688
 51
119.31524658203124
  0
ARC
  8
_0-0_
  6
CONTINUOUS
 62
    7
 10
1811.6880687949356
 20
391.78620639443835
 40
1.6000000206199851
 50
179.99999999999997
 51
270
  0
ARC
  8
_0-0_
  6
CONTINUOUS
 62
    7
 10
1811.6880687949356
 20
421.87584765618345
 40
1.6000000206199851
 50
89.999984741210937
 51
180
  0
ARC
  8
_0-0_
  6
CONTINUOUS
 62
    7
 10
1775.3662535104127
 20
418.95281010141679
 40
5.7504497669838575
 50
180.71638488769528
 51
359.28364562988276
  0
ARC
  8
_0-0_
  6
CONTINUOUS
 62
    7
 10
1775.3662535104127
 20
453.62367595934018
 40
5.7502844849148316
 50
0.5702514648437683
 51
179.42973327636719
  0
ARC
  8
_0-0_
  6
CONTINUOUS
 62
    7
 10
1779.0382604783179
 20
460.480913904072
 40
2.3000000296412288
 50
29.996643066406254
 51
89.999969482421875
  0
ARC
  8
_0-0_
  6
CONTINUOUS
 62
    7
 10
1771.6942465425068
 20
460.480913904072
 40
2.3000000296412288
 50
89.999984741210937
 51
150.00334167480469
  0
ARC
  8
_0-0_
  6
CONTINUOUS
 62
    7
 10
1764.0163125660501
 20
412.08091134719382
 40
2.3000000296412288
 50
179.99999999999997
 51
270
  0
ARC
  8
_0-0_
  6
CONTINUOUS
 62
    7
 10
1764.0163125660501
 20
447.18043576785476
 40
2.3000000296412288
 50
150.00334167480469
 51
180
  0
ARC
  8
_0-0_
  6
CONTINUOUS
 62
    7
 10
1830.6757347445762
 20
228.401614183514
 40
156.7851092364337
 50
89.1484375
 51
97.479873657226577
  0
ARC
  8
_0-0_
  6
CONTINUOUS
 62
    7
 10
1761.7140087363418
 20
383.18618791893158
 40
1.6000000206199851
 50
180
 51
270
  0
ARC
  8
_0-0_
  6
CONTINUOUS
 62
    7
 10
1703.7241163753629
 20
499.84475909350431
 40
88.622756958007813
 50
341.92012023925781
 51
18.079864501953146
  0
ARC
  8
_0-0_
  6
CONTINUOUS
 62
    7
 10
1786.3711138271451
 20
464.94016085742055
 40
1.6000000238418577
 50
269.99999999999994
 51
359.99999999999994
  0
ARC
  8
_0-0_
  6
CONTINUOUS
 62
    7
 10
1760.0725470089078
 20
463.34016047595048
 40
1.6000000238418577
 50
89.999999999999972
 51
179.99999999999997
  0
LINE
  8
_0-0_
  6
CONTINUOUS
 62
    7
 10
1801.7642181419496
 20
509.14016162036
 11
1791.8580494426851
 21
509.14016162036
  0
LINE
  8
_0-0_
  6
CONTINUOUS
 62
    7
 10
1801.7642181419496
 20
489.14016162035983
 11
1801.7642181419496
 21
509.14016162036
  0
LINE
  8
_0-0_
  6
CONTINUOUS
 62
    7
 10
1801.7642181419496
 20
489.14016162035983
 11
1791.6980114482999
 21
489.14016162035983
  0
LINE
  8
_0-0_
  6
CONTINUOUS
 62
    7
 10
1786.3711138271451
 20
505.44568835375833
 11
1786.3711138271451
 21
510.24647723315292
  0
LINE
  8
_0-0_
  6
CONTINUOUS
 62
    7
 10
1786.3711138271451
 20
482.84195147631669
 11
1786.3711138271451
 21
505.44568835375833
  0
LINE
  8
_0-0_
  6
CONTINUOUS
 62
    7
 10
1786.3711138271451
 20
510.24647723315292
 11
1786.3711138271451
 21
534.94016467211782
  0
LINE
  8
_0-0_
  6
CONTINUOUS
 62
    7
 10
1786.3711138271451
 20
464.94016085742055
 11
1786.3711138271451
 21
482.84195147631669
  0
LINE
  8
_0-0_
  6
CONTINUOUS
 62
    7
 10
1751.3711157344937
 20
469.14016162035972
 11
1751.3711157344937
 21
529.14016162035966
  0
LINE
  8
_0-0_
  6
CONTINUOUS
 62
    7
 10
1760.0725470089078
 20
464.94016085742055
 11
1786.3711138271451
 21
464.94016085742055
  0
LINE
  8
_0-0_
  6
CONTINUOUS
 62
    7
 10
1787.9711142086148
 20
464.94016085742055
 11
1787.9711142086148
 21
534.94016467211782
  0
LINE
  8
_0-0_
  6
CONTINUOUS
 62
    7
 10
1786.3711138271451
 20
534.94016467211782
 11
1787.9711142086148
 21
534.94016467211782
  0
LINE
  8
_0-0_
  6
CONTINUOUS
 62
    7
 10
1786.3711138271451
 20
529.14016162035966
 11
1751.3711157344937
 21
529.14016162035966
  0
LINE
  8
_0-0_
  6
CONTINUOUS
 62
    7
 10
1786.3711138271451
 20
469.14016162035972
 11
1751.3711157344937
 21
469.14016162035972
  0
LINE
  8
_0-0_
  6
CONTINUOUS
 62
    7
 10
1760.0880816618064
 20
383.18618791893158
 11
1760.0880816618064
 21
463.34016047595048
  0
LINE
  8
_0-0_
  6
CONTINUOUS
 62
    7
 10
1786.3711138271451
 20
463.34016047595048
 11
1760.0880816618064
 21
463.34016047595048
  0
LINE
  8
_0-0_
  6
CONTINUOUS
 62
    7
 10
1756.9958958114053
 20
421.5791054488883
 11
1758.4760808304081
 21
421.5791054488883
  0
LINE
  8
_0-0_
  6
CONTINUOUS
 62
    7
 10
1755.4232920186473
 20
424.07911369688242
 11
1757.0228667520723
 21
421.58495121469804
  0
LINE
  8
_0-0_
  6
CONTINUOUS
 62
    7
 10
1755.4232920186473
 20
435.07911287208299
 11
1756.9761006255942
 21
437.5791211200771
  0
LINE
  8
_0-0_
  6
CONTINUOUS
 62
    7
 10
1751.4761319679719
 20
424.07911369688242
 11
1755.4232920186473
 21
424.07911369688242
  0
LINE
  8
_0-0_
  6
CONTINUOUS
 62
    7
 10
1751.4761319679719
 20
424.07911369688242
 11
1751.4761319679719
 21
435.07911287208299
  0
LINE
  8
_0-0_
  6
CONTINUOUS
 62
    7
 10
1751.4761319679719
 20
435.07911287208299
 11
1755.4232920186473
 21
435.07911287208299
  0
LINE
  8
_0-0_
  6
CONTINUOUS
 62
    7
 10
1755.4761204207803
 20
424.07911369688242
 11
1755.4761204207803
 21
435.07911287208299
  0
LINE
  8
_0-0_
  6
CONTINUOUS
 62
    7
 10
1756.9761006255942
 20
421.5791054488883
 11
1756.9761006255942
 21
437.5791211200771
  0
LINE
  8
_0-0_
  6
CONTINUOUS
 62
    7
 10
1755.4761204207803
 20
432.57969229366768
 11
1751.4761319679719
 21
432.57969229366768
  0
LINE
  8
_0-0_
  6
CONTINUOUS
 62
    7
 10
1755.4761204207803
 20
426.57970961445528
 11
1751.4761319679719
 21
426.57970961445528
  0
LINE
  8
_0-0_
  6
CONTINUOUS
 62
    7
 10
1758.4760808304081
 20
421.5791054488883
 11
1758.4760808304081
 21
437.5791211200771
  0
LINE
  8
_0-0_
  6
CONTINUOUS
 62
    7
 10
1756.9761006255942
 20
437.5791211200771
 11
1758.4760808304081
 21
437.5791211200771
  0
LINE
  8
_0-0_
  6
CONTINUOUS
 62
    7
 10
1758.4880816618061
 20
383.18618791893158
 11
1758.4880816618061
 21
463.34016047595048
  0
LINE
  8
_0-0_
  6
CONTINUOUS
 62
    7
 10
1110.7035682835776
 20
379.87872011716797
 11
1110.7035682835776
 21
716.86383810823736
  0
LINE
  8
_0-0_
  6
DASHED2
 62
    7
 10
1130.7036342675306
 20
282.17871450853193
 11
1130.7036342675306
 21
716.86383810823736
  0
LINE
  8
_0-0_
  6
CONTINUOUS
 62
    7
 10
1095.7036425155247
 20
267.17872688052307
 11
1095.7036425155247
 21
716.86383810823736
  0
LINE
  8
_0-0_
  6
DASHED2
 62
    7
 10
1190.703584779566
 20
282.17871450853193
 11
1190.703584779566
 21
716.86383810823736
  0
LINE
  8
_0-0_
  6
CONTINUOUS
 62
    7
 10
1210.7036507635187
 20
379.87872011716797
 11
1210.7036507635187
 21
716.86383810823736
  0
LINE
  8
_0-0_
  6
CONTINUOUS
 62
    7
 10
568.26052279085729
 20
382.01952753840266
 11
568.26052279085729
 21
716.86383810823736
  0
LINE
  8
_0-0_
  6
CENTER2
 62
    7
 10
493.26055372083511
 20
716.86383810823736
 11
493.26055372083511
 21
153.50204673973295
  0
LINE
  8
_0-0_
  6
CONTINUOUS
 62
    7
 10
418.26055372083511
 20
232.01952753840266
 11
418.26055372083511
 21
716.86383810823736
  0
TEXT
  8
_0-0_
 62
    3
 10
911.87676454359405
 20
794.76428468788163
 40
30
 41
1
 50
0
  1
ST､LTタイプ共袖寸法最低90mm以上必要
  0
TEXT
  8
_0-0_
 62
    2
 10
119.96966632962582
 20
1347.6567239635995
 40
35
 41
1
 50
0
  1
レール納まり例
  0
ENDSEC
  0
EOF
